  0
SECTION
  2
HEADER
  9
$ACADVER
  1
AC1009
  9
$INSBASE
 10
0
 20
0
 30
0
  9
$EXTMIN
 10
0
 20
0
  9
$EXTMAX
 10
420.5
 20
297
  9
$LIMMIN
 10
0
 20
0
  9
$LIMMAX
 10
420.5
 20
297
  9
$LTSCALE
 40
0.5
  0
ENDSEC
  0
SECTION
  2
TABLES
  0
TABLE
  2
LTYPE
 70
     9
  0
LTYPE
  2
CONTINUOUS
 70
    64
  3
実線
 72
    65
 73
     0
 40
0.0
  0
LTYPE
  2
DASHED1
 70
    64
  3
--  --  --  --  --  --  --  --  
 72
    65
 73
     2
 40
2.5
 49
1.25
 49
-1.25
  0
LTYPE
  2
DASHED2
 70
    64
  3
----    ----    ----    ----    
 72
    65
 73
     2
 40
5.0
 49
2.5
 49
-2.5
  0
LTYPE
  2
DASHED3
 70
    64
  3
------  ------  ------  ------  
 72
    65
 73
     2
 40
5.0
 49
3.75
 49
-1.25
  0
LTYPE
  2
CENTER1
 70
    64
  3
----- - ----- - ----- - ----- - 
 72
    65
 73
     4
 40
10.0
 49
6.25
 49
-1.25
 49
1.25
 49
-1.25
  0
LTYPE
  2
CENTER2
 70
    64
  3
----------  --  ----------  --  
 72
    65
 73
     4
 40
20.0
 49
12.5
 49
-2.5
 49
2.5
 49
-2.5
  0
LTYPE
  2
PHANTOM1
 70
    64
  3
--- - - --- - - --- - - --- - - 
 72
    65
 73
     6
 40
10.0
 49
3.25
 49
-1.25
 49
1.25
 49
-1.25
 49
1.25
 49
-1.25
  0
LTYPE
  2
PHANTOM2
 70
    64
  3
--------  -  -  --------  -  -  
 72
    65
 73
     6
 40
20.0
 49
10.0
 49
-2.5
 49
1.25
 49
-2.5
 49
1.25
 49
-2.5
  0
LTYPE
  2
DOT
 70
    64
  3
-   -   -   -   -   -   -   -   
 72
    65
 73
     2
 40
2.5
 49
0.625
 49
-1.875
  0
LTYPE
  2
DUMMY
 70
    64
  3
ダミー
 72
    65
 73
     0
 40
0.0
  0
LTYPE
  2
RAND1
 70
    64
  3
ランダム線1
 72
    65
 73
     4
 40
10.0
 49
1.0
 49
-2.0
 49
3.0
 49
-4.0
  0
LTYPE
  2
RAND2
 70
    64
  3
ランダム線2
 72
    65
 73
     4
 40
14.0
 49
2.0
 49
-3.0
 49
4.0
 49
-5.0
  0
LTYPE
  2
RAND3
 70
    64
  3
ランダム線3
 72
    65
 73
     4
 40
18.0
 49
3.0
 49
-4.0
 49
5.0
 49
-6.0
  0
LTYPE
  2
RAND4
 70
    64
  3
ランダム線4
 72
    65
 73
     4
 40
22.0
 49
4.0
 49
-5.0
 49
6.0
 49
-7.0
  0
LTYPE
  2
RAND5
 70
    64
  3
ランダム線5
 72
    65
 73
     4
 40
26.0
 49
5.0
 49
-6.0
 49
7.0
 49
-8.0
  0
LTYPE
  2
LONG1
 70
    64
  3
----------  --  ----------  --  
 72
    65
 73
     4
 40
40.0
 49
32.5
 49
-2.5
 49
2.5
 49
-2.5
  0
LTYPE
  2
LONG2
 70
    64
  3
--------  -  -  --------  -  -  
 72
    65
 73
     6
 40
40.0
 49
30.0
 49
-2.5
 49
1.25
 49
-2.5
 49
1.25
 49
-2.5
  0
LTYPE
  2
LONG3
 70
    64
  3
+++++++++++++++..+++++++++++++++
 72
    65
 73
     2
 40
40.0
 49
37.5
 49
-2.5
  0
LTYPE
  2
LONG4
 70
    64
  3
+++++++++++++++..+++++++++++++++
 72
    65
 73
     2
 40
80.0
 49
75.0
 49
-5.0
  0
LTYPE
  2
LONG5
 70
    64
  3
----------  --  ----------  --  
 72
    65
 73
     4
 40
60.0
 49
37.5
 49
-7.5
 49
7.5
 49
-7.5
  0
LTYPE
  2
dashed
 70
   64
  3
-------   -------------   ------
 72
   65
 73
    2
 40
7.5
 49
6
 49
-1.5
  0
LTYPE
  2
dashed_spaced
 70
   64
  3
----        --------        ----
 72
   65
 73
    2
 40
12
 49
6
 49
-6
  0
LTYPE
  2
long_dashed_dotted
 70
   64
  3
------------- --- --------------
 72
   65
 73
    4
 40
15.25
 49
12
 49
-1.5
 49
0.25
 49
-1.5
  0
LTYPE
  2
long_dashed_double-dotted
 70
   64
  3
----------- --- --- ------------
 72
   65
 73
    6
 40
17
 49
12
 49
-1.5
 49
0.25
 49
-1.5
 49
0.25
 49
-1.5
  0
LTYPE
  2
long_dashed_triplicate-dotted
 70
   64
  3
--------- --- --- --- ----------
 72
   65
 73
    8
 40
18.75
 49
12
 49
-1.5
 49
0.25
 49
-1.5
 49
0.25
 49
-1.5
 49
0.25
 49
-1.5
  0
LTYPE
  2
dotted
 70
   64
  3
   -       -       -       -    
 72
   65
 73
    2
 40
1.75
 49
0.25
 49
-1.5
  0
LTYPE
  2
chain
 70
   64
  3
-------------- -- --------------
 72
   65
 73
    4
 40
18.5
 49
12
 49
-1.5
 49
3.5
 49
-1.5
  0
LTYPE
  2
chain_double_dash
 70
   64
  3
------------ -- -- -------------
 72
   65
 73
    6
 40
23.5
 49
12
 49
-1.5
 49
3.5
 49
-1.5
 49
3.5
 49
-1.5
  0
LTYPE
  2
dashed_dotted
 70
   64
  3
-----------     -     ----------
 72
   65
 73
    4
 40
9.25
 49
6
 49
-1.5
 49
0.25
 49
-1.5
  0
LTYPE
  2
double-dashed_dotted
 70
   64
  3
------   -----------   -   -----
 72
   65
 73
    6
 40
16.75
 49
6
 49
-1.5
 49
6
 49
-1.5
 49
0.25
 49
-1.5
  0
LTYPE
  2
dashed_double-dotted
 70
   64
  3
---------    -    -    ---------
 72
   65
 73
    6
 40
11
 49
6
 49
-1.5
 49
0.25
 49
-1.5
 49
0.25
 49
-1.5
  0
LTYPE
  2
double-dashed_double-dotted
 70
   64
  3
-----   ---------   -   -   ----
 72
   65
 73
    8
 40
18.5
 49
6
 49
-1.5
 49
6
 49
-1.5
 49
0.25
 49
-1.5
 49
0.25
 49
-1.5
  0
LTYPE
  2
dashed_triplicate-dotted
 70
   64
  3
-------    -    -    -    ------
 72
   65
 73
    8
 40
12.75
 49
6
 49
-1.5
 49
0.25
 49
-1.5
 49
0.25
 49
-1.5
 49
0.25
 49
-1.5
  0
LTYPE
  2
double-dashed_triplicate-dotted
 70
   64
  3
-----  ---------  -  -  -  -----
 72
   65
 73
   10
 40
20.25
 49
6
 49
-1.5
 49
6
 49
-1.5
 49
0.25
 49
-1.5
 49
0.25
 49
-1.5
 49
0.25
 49
-1.5
  0
LTYPE
  2
undefined
 70
   64
  3
--------------------------------
 72
   65
 73
    0
 40
0
  0
LTYPE
  2
CENTER
 70
   64
  3
----------    ----    ----------
 72
   65
 73
    4
 40
2
 49
1.25
 49
-0.25
 49
0.25
 49
-0.25
  0
LTYPE
  2
HIDDEN
 70
   64
  3
------     -----------     -----
 72
   65
 73
    2
 40
0.375
 49
0.25
 49
-0.125
  0
LTYPE
  2
DASHED
 70
   64
  3
------     -----------     -----
 72
   65
 73
    2
 40
0.75
 49
0.5
 49
-0.25
  0
LTYPE
  2
PHANTOM
 70
   64
  3
---------   ---   ---   --------
 72
   65
 73
    6
 40
2.5
 49
1.25
 49
-0.25
 49
0.25
 49
-0.25
 49
0.25
 49
-0.25
  0
ENDTAB
  0
TABLE
  2
STYLE
  5
3
100
AcDbSymbolTable
 70
     1
  0
STYLE
  5
10
100
AcDbSymbolTableRecord
100
AcDbTextStyleTableRecord
  2
STANDARD
 70
     0
 40
0.0
 41
1.0
 50
0.0
 71
     0
 42
0.2
  3
txt
  4
bigfont.shx
  0
STYLE
  5
26
100
AcDbSymbolTableRecord
100
AcDbTextStyleTableRecord
  2
TATEGAKI
 70
    68
 40
0.0
 41
1.0
 50
0.0
 71
     0
 42
1.0
  3
txt
  4
bigfont.shx
  0
ENDTAB
  0
TABLE
  2
LAYER
 70
    8
  0
LAYER
  2
_0-1_ITTEN
 70
   64
 62
    7
  6
CONTINUOUS
  0
LAYER
  2
_0-2_HATCH
 70
   64
 62
    7
  6
CONTINUOUS
  0
LAYER
  2
_0-3_SUNPOU
 70
   64
 62
    7
  6
CONTINUOUS
  0
LAYER
  2
_0-4_TEXT
 70
   64
 62
    7
  6
CONTINUOUS
  0
LAYER
  2
_0-5_SAISEN
 70
   64
 62
    7
  6
CONTINUOUS
  0
LAYER
  2
_0-6_JISSEN
 70
   64
 62
    7
  6
CONTINUOUS
  0
LAYER
  2
_0-8_WAKU
 70
   64
 62
    7
  6
CONTINUOUS
  0
LAYER
  2
ADD_LINE
 70
   64
 62
    7
  6
CONTINUOUS
  0
ENDTAB
  0
ENDSEC
  0
SECTION
  2
BLOCKS
  0
ENDSEC
  0
SECTION
  2
ENTITIES
  0
LINE
  8
_0-8_WAKU
  6
CONTINUOUS
 62
    5
 10
-62.750001271255144
 20
-32.500000122847013
 11
483.24999872874486
 21
-32.500000122847013
  0
LINE
  8
_0-8_WAKU
  6
CONTINUOUS
 62
    5
 10
483.24999872874486
 20
-32.500000122847013
 11
483.24999872874486
 21
329.49999843715295
  0
LINE
  8
_0-8_WAKU
  6
CONTINUOUS
 62
    5
 10
483.24999872874486
 20
329.49999843715295
 11
-62.750001271255144
 21
329.49999843715295
  0
LINE
  8
_0-8_WAKU
  6
CONTINUOUS
 62
    5
 10
-62.750001271255144
 20
329.49999843715295
 11
-62.750001271255144
 21
-32.500000122847013
  0
LINE
  8
_0-6_JISSEN
  6
CONTINUOUS
 62
    7
 10
78.249998728744742
 20
175.4999991571529
 11
52.249998728744742
 21
175.4999991571529
  0
LINE
  8
_0-6_JISSEN
  6
CONTINUOUS
 62
    7
 10
78.249998728744856
 20
143.4999991571525
 11
52.249998728744856
 21
143.4999991571525
  0
LINE
  8
_0-5_SAISEN
  6
CONTINUOUS
 62
    4
 10
402.84758920022057
 20
131.49999915715298
 11
402.90216501480415
 21
131.1970181009325
  0
LINE
  8
_0-5_SAISEN
  6
CONTINUOUS
 62
    4
 10
402.90216501480415
 20
131.1970181009325
 11
403.13449283722207
 21
130.158057051443
  0
LINE
  8
_0-5_SAISEN
  6
CONTINUOUS
 62
    4
 10
403.13449283722207
 20
130.158057051443
 11
403.37524342057355
 21
129.0829846627081
  0
LINE
  8
_0-5_SAISEN
  6
CONTINUOUS
 62
    4
 10
403.37524342057355
 20
129.0829846627081
 11
403.57809157972395
 21
127.9888048282798
  0
LINE
  8
_0-5_SAISEN
  6
CONTINUOUS
 62
    4
 10
403.57809157972395
 20
127.9888048282798
 11
403.69671212953847
 21
126.89252144171039
  0
LINE
  8
_0-5_SAISEN
  6
CONTINUOUS
 62
    4
 10
403.69671212953847
 20
126.89252144171039
 11
403.68477988488257
 21
125.811138396552
  0
LINE
  8
_0-5_SAISEN
  6
CONTINUOUS
 62
    4
 10
403.68477988488257
 20
125.811138396552
 11
403.49596966062148
 21
124.76165958635659
  0
LINE
  8
_0-5_SAISEN
  6
CONTINUOUS
 62
    4
 10
403.49596966062148
 20
124.76165958635659
 11
403.08395627162076
 21
123.7610889046764
  0
LINE
  8
_0-5_SAISEN
  6
CONTINUOUS
 62
    4
 10
403.08395627162076
 20
123.7610889046764
 11
402.43084516890934
 21
122.81069258071417
  0
LINE
  8
_0-5_SAISEN
  6
CONTINUOUS
 62
    4
 10
402.43084516890934
 20
122.81069258071417
 11
401.63246434817245
 21
121.84878618627508
  0
LINE
  8
_0-5_SAISEN
  6
CONTINUOUS
 62
    4
 10
401.63246434817245
 20
121.84878618627508
 11
400.81307244125867
 21
120.79794762881508
  0
LINE
  8
_0-5_SAISEN
  6
CONTINUOUS
 62
    4
 10
400.81307244125867
 20
120.79794762881508
 11
400.09692808001694
 21
119.58075481578967
  0
LINE
  8
_0-5_SAISEN
  6
CONTINUOUS
 62
    4
 10
400.09692808001694
 20
119.58075481578967
 11
399.60828989629636
 21
118.11978565465517
  0
LINE
  8
_0-5_SAISEN
  6
CONTINUOUS
 62
    4
 10
399.60828989629636
 20
118.11978565465517
 11
399.47141652194546
 21
116.3376180528669
  0
LINE
  8
_0-5_SAISEN
  6
CONTINUOUS
 62
    4
 10
399.47141652194546
 20
116.3376180528669
 11
399.81056658881306
 21
114.15682991788088
  0
LINE
  8
_0-5_SAISEN
  6
CONTINUOUS
 62
    4
 10
399.81056658881306
 20
114.15682991788088
 11
400.74999872874844
 21
111.4999991571531
  0
LINE
  8
_0-5_SAISEN
  6
CONTINUOUS
 62
    4
 10
223.65240825726886
 20
131.49999915715208
 11
223.59783244268533
 21
131.1970181009325
  0
LINE
  8
_0-5_SAISEN
  6
CONTINUOUS
 62
    4
 10
223.59783244268533
 20
131.1970181009325
 11
223.36550462026764
 21
130.158057051443
  0
LINE
  8
_0-5_SAISEN
  6
CONTINUOUS
 62
    4
 10
223.36550462026764
 20
130.158057051443
 11
223.12475403691616
 21
129.0829846627081
  0
LINE
  8
_0-5_SAISEN
  6
CONTINUOUS
 62
    4
 10
223.12475403691616
 20
129.0829846627081
 11
222.92190587776588
 21
127.9888048282798
  0
LINE
  8
_0-5_SAISEN
  6
CONTINUOUS
 62
    4
 10
222.92190587776588
 20
127.9888048282798
 11
222.80328532795124
 21
126.89252144171039
  0
LINE
  8
_0-5_SAISEN
  6
CONTINUOUS
 62
    4
 10
222.80328532795124
 20
126.89252144171039
 11
222.81521757260714
 21
125.811138396552
  0
LINE
  8
_0-5_SAISEN
  6
CONTINUOUS
 62
    4
 10
222.81521757260714
 20
125.811138396552
 11
223.00402779686823
 21
124.76165958635659
  0
LINE
  8
_0-5_SAISEN
  6
CONTINUOUS
 62
    4
 10
223.00402779686823
 20
124.76165958635659
 11
223.41604118586895
 21
123.7610889046764
  0
LINE
  8
_0-5_SAISEN
  6
CONTINUOUS
 62
    4
 10
223.41604118586895
 20
123.7610889046764
 11
224.06915228858037
 21
122.81069258071417
  0
LINE
  8
_0-5_SAISEN
  6
CONTINUOUS
 62
    4
 10
224.06915228858037
 20
122.81069258071417
 11
224.86753310931738
 21
121.84878618627508
  0
LINE
  8
_0-5_SAISEN
  6
CONTINUOUS
 62
    4
 10
224.86753310931738
 20
121.84878618627508
 11
225.68692501623116
 21
120.79794762881508
  0
LINE
  8
_0-5_SAISEN
  6
CONTINUOUS
 62
    4
 10
225.68692501623116
 20
120.79794762881508
 11
226.40306937747278
 21
119.58075481578967
  0
LINE
  8
_0-5_SAISEN
  6
CONTINUOUS
 62
    4
 10
226.40306937747278
 20
119.58075481578967
 11
226.89170756119347
 21
118.11978565465517
  0
LINE
  8
_0-5_SAISEN
  6
CONTINUOUS
 62
    4
 10
226.89170756119347
 20
118.11978565465517
 11
227.02858093554437
 21
116.3376180528669
  0
LINE
  8
_0-5_SAISEN
  6
CONTINUOUS
 62
    4
 10
227.02858093554437
 20
116.3376180528669
 11
226.68943086867665
 21
114.15682991788088
  0
LINE
  8
_0-5_SAISEN
  6
CONTINUOUS
 62
    4
 10
226.68943086867665
 20
114.15682991788088
 11
225.74999872874133
 21
111.4999991571531
  0
LINE
  8
_0-6_JISSEN
  6
CONTINUOUS
 62
    7
 10
223.65240825726875
 20
131.49999915715148
 11
294.74999872874668
 21
131.4999991571531
  0
LINE
  8
_0-6_JISSEN
  6
CONTINUOUS
 62
    7
 10
331.74999872874668
 20
131.4999991571531
 11
402.84758920022057
 21
131.4999991571529
  0
LINE
  8
_0-6_JISSEN
  6
CONTINUOUS
 62
    7
 10
299.24999872874486
 20
144.6599991571529
 11
327.24999872874486
 21
144.6599991571529
  0
ARC
  8
_0-6_JISSEN
  6
CONTINUOUS
 62
    7
 10
375.49999872874486
 20
243.49999915715298
 40
7.2499999999999858
 50
136.397181027296
 51
223.60281897270389
  0
LINE
  8
_0-6_JISSEN
  6
CONTINUOUS
 62
    7
 10
378.24999872874497
 20
238.49999915715287
 11
370.24999872874486
 21
238.49999915715287
  0
ARC
  8
_0-6_JISSEN
  6
CONTINUOUS
 62
    7
 10
372.99999872874463
 20
243.49999915715298
 40
7.25
 50
316.39718102729614
 51
43.602818972703879
  0
ARC
  8
_0-6_JISSEN
  6
CONTINUOUS
 62
    7
 10
394.24999872874486
 20
228.49999915715298
 40
26.000000000000021
 50
157.38013505195951
 51
202.6198649480406
  0
LINE
  8
_0-1_ITTEN
  6
CENTER
 62
    1
 10
354.24999872874486
 20
228.49999915715298
 11
385.24999872874486
 21
228.49999915715298
  0
LINE
  8
_0-6_JISSEN
  6
CONTINUOUS
 62
    7
 10
367.24999872874486
 20
228.49999915715298
 11
363.24999872874486
 21
230.99999915715298
  0
LINE
  8
_0-6_JISSEN
  6
CONTINUOUS
 62
    7
 10
363.24999872874486
 20
230.99999915715298
 11
363.24999872874486
 21
229.49999915715287
  0
LINE
  8
_0-6_JISSEN
  6
CONTINUOUS
 62
    7
 10
363.24999872874486
 20
229.49999915715287
 11
359.24999872874486
 21
229.49999915715287
  0
LINE
  8
_0-6_JISSEN
  6
CONTINUOUS
 62
    7
 10
359.24999872874486
 20
229.49999915715287
 11
359.24999872874486
 21
227.49999915715287
  0
LINE
  8
_0-6_JISSEN
  6
CONTINUOUS
 62
    7
 10
359.24999872874486
 20
227.49999915715287
 11
363.24999872874486
 21
227.49999915715287
  0
LINE
  8
_0-6_JISSEN
  6
CONTINUOUS
 62
    7
 10
363.24999872874486
 20
227.49999915715287
 11
363.24999872874486
 21
225.99999915715287
  0
LINE
  8
_0-6_JISSEN
  6
CONTINUOUS
 62
    7
 10
363.24999872874486
 20
225.99999915715287
 11
367.24999872874486
 21
228.49999915715298
  0
ARC
  8
_0-6_JISSEN
  6
CONTINUOUS
 62
    7
 10
367.13848273707663
 20
199.4460631238257
 40
46.567203351660062
 50
88.632272943086548
 51
144.45214565844461
  0
ARC
  8
_0-6_JISSEN
  6
CONTINUOUS
 62
    7
 10
365.49999872874457
 20
197.49999915715298
 40
13.5
 50
90
 51
180
  0
LINE
  8
_0-6_JISSEN
  6
CONTINUOUS
 62
    7
 10
294.24999872874486
 20
228.49999915715298
 11
290.24999872874486
 21
230.99999915715298
  0
LINE
  8
_0-6_JISSEN
  6
CONTINUOUS
 62
    7
 10
290.24999872874486
 20
230.99999915715298
 11
290.24999872874486
 21
229.49999915715287
  0
LINE
  8
_0-6_JISSEN
  6
CONTINUOUS
 62
    7
 10
290.24999872874486
 20
229.49999915715287
 11
286.24999872874486
 21
229.49999915715287
  0
LINE
  8
_0-6_JISSEN
  6
CONTINUOUS
 62
    7
 10
286.24999872874486
 20
229.49999915715287
 11
286.24999872874486
 21
227.49999915715287
  0
LINE
  8
_0-6_JISSEN
  6
CONTINUOUS
 62
    7
 10
286.24999872874486
 20
227.49999915715287
 11
290.24999872874486
 21
227.49999915715287
  0
LINE
  8
_0-6_JISSEN
  6
CONTINUOUS
 62
    7
 10
290.24999872874486
 20
227.49999915715287
 11
290.24999872874486
 21
225.99999915715287
  0
LINE
  8
_0-6_JISSEN
  6
CONTINUOUS
 62
    7
 10
290.24999872874486
 20
225.99999915715287
 11
294.24999872874486
 21
228.49999915715298
  0
ARC
  8
_0-6_JISSEN
  6
CONTINUOUS
 62
    7
 10
286.36151472041325
 20
199.4460631238257
 40
46.567203351660062
 50
35.547854341555372
 51
91.367727056913395
  0
LINE
  8
_0-6_JISSEN
  6
CONTINUOUS
 62
    7
 10
273.24999872874486
 20
213.49999915715298
 11
273.24999872874486
 21
243.49999915715298
  0
ARC
  8
_0-6_JISSEN
  6
CONTINUOUS
 62
    7
 10
259.24999872874486
 20
228.49999915715298
 40
25.999999999999972
 50
337.38013505195943
 51
22.619864948040608
  0
ARC
  8
_0-6_JISSEN
  6
CONTINUOUS
 62
    7
 10
299.24999872874486
 20
228.49999915715298
 40
26.000000000000021
 50
157.38013505195929
 51
202.6198649480406
  0
LINE
  8
_0-6_JISSEN
  6
CONTINUOUS
 62
    7
 10
285.24999872874486
 20
210.9999991571529
 11
285.24999872874486
 21
245.99999915715287
  0
LINE
  8
_0-1_ITTEN
  6
CENTER
 62
    1
 10
268.24999872874486
 20
228.49999915715298
 11
299.24999872874486
 21
228.49999915715298
  0
LINE
  8
_0-6_JISSEN
  6
CONTINUOUS
 62
    7
 10
326.08999872874506
 20
143.49999915715298
 11
300.40999872874488
 21
143.49999915715298
  0
TEXT
  8
_0-6_JISSEN
 62
    7
 10
309.66971029580293
 20
182.7093646732738
 40
8
 41
0.9
 50
0
  1
PAT
  0
LINE
  8
_0-6_JISSEN
  6
CONTINUOUS
 62
    7
 10
316.44364954264074
 20
201.3284262818992
 11
315.02943598026764
 21
202.74263984427228
  0
LINE
  8
_0-6_JISSEN
  6
CONTINUOUS
 62
    7
 10
315.02943598026764
 20
202.74263984427228
 11
321.39339701094667
 21
209.1066008749512
  0
LINE
  8
_0-6_JISSEN
  6
CONTINUOUS
 62
    7
 10
321.39339701094667
 20
209.1066008749512
 11
322.80761057331978
 21
207.69238731257809
  0
ARC
  8
_0-6_JISSEN
  6
CONTINUOUS
 62
    7
 10
323.51471735450633
 20
208.39949409376464
 40
1.000000000000008
 50
225
 51
315
  0
LINE
  8
_0-6_JISSEN
  6
CONTINUOUS
 62
    7
 10
324.22182413569288
 20
207.69238731257809
 11
325.63603769806593
 21
209.1066008749512
  0
LINE
  8
_0-6_JISSEN
  6
CONTINUOUS
 62
    7
 10
325.63603769806593
 20
209.1066008749512
 11
331.99999872874486
 21
202.74263984427228
  0
LINE
  8
_0-6_JISSEN
  6
CONTINUOUS
 62
    7
 10
331.99999872874486
 20
202.74263984427228
 11
330.58578516637175
 21
201.3284262818992
  0
ARC
  8
_0-6_JISSEN
  6
CONTINUOUS
 62
    7
 10
331.2928919475583
 20
200.62131950071264
 40
1.000000000000008
 50
135
 51
225
  0
LINE
  8
_0-6_JISSEN
  6
CONTINUOUS
 62
    7
 10
330.58578516637175
 20
199.91421271952609
 11
331.99999872874486
 21
198.49999915715298
  0
LINE
  8
_0-6_JISSEN
  6
CONTINUOUS
 62
    7
 10
331.99999872874486
 20
198.49999915715298
 11
325.63603769806593
 21
192.13603812647409
  0
LINE
  8
_0-6_JISSEN
  6
CONTINUOUS
 62
    7
 10
325.63603769806593
 20
192.13603812647409
 11
324.22182413569288
 21
193.5502516888472
  0
ARC
  8
_0-6_JISSEN
  6
CONTINUOUS
 62
    7
 10
323.51471735450633
 20
192.84314490766064
 40
0.9999999999999958
 50
44.999999999999297
 51
135.00000000000068
  0
LINE
  8
_0-6_JISSEN
  6
CONTINUOUS
 62
    7
 10
322.80761057331978
 20
193.5502516888472
 11
321.39339701094667
 21
192.13603812647409
  0
LINE
  8
_0-6_JISSEN
  6
CONTINUOUS
 62
    7
 10
321.39339701094667
 20
192.13603812647409
 11
315.02943598026764
 21
198.49999915715298
  0
LINE
  8
_0-6_JISSEN
  6
CONTINUOUS
 62
    7
 10
315.02943598026764
 20
198.49999915715298
 11
316.44364954264074
 21
199.91421271952609
  0
LINE
  8
_0-6_JISSEN
  6
CONTINUOUS
 62
    7
 10
316.44364954264074
 20
199.91421271952609
 11
316.44364954264074
 21
201.3284262818992
  0
LINE
  8
_0-6_JISSEN
  6
CONTINUOUS
 62
    7
 10
296.69999872874484
 20
163.20156127586938
 11
296.69999872874484
 21
201.99999915715298
  0
LINE
  8
_0-6_JISSEN
  6
CONTINUOUS
 62
    7
 10
297.13826110985877
 20
161.95217118076059
 11
298.81173634763098
 21
159.86032713354538
  0
LINE
  8
_0-6_JISSEN
  6
CONTINUOUS
 62
    7
 10
299.24999872874486
 20
158.61093703843648
 11
299.24999872874486
 21
144.6599991571529
  0
ARC
  8
_0-6_JISSEN
  6
CONTINUOUS
 62
    7
 10
297.24999872874486
 20
158.61093703843648
 40
2
 50
0
 51
38.65980825408996
  0
ARC
  8
_0-6_JISSEN
  6
CONTINUOUS
 62
    7
 10
298.69999872874484
 20
163.20156127586938
 40
2
 50
180
 51
218.65980825408991
  0
ARC
  8
_0-6_JISSEN
  6
CONTINUOUS
 62
    7
 10
287.69999872874496
 20
201.99999915715298
 40
9
 50
0
 51
90
  0
LINE
  8
_0-6_JISSEN
  6
CONTINUOUS
 62
    7
 10
275.24999872874486
 20
218.49999915715298
 11
283.24999872874486
 21
218.49999915715298
  0
LINE
  8
_0-6_JISSEN
  6
CONTINUOUS
 62
    7
 10
275.24999872874474
 20
208.49999915715298
 11
283.24999872874486
 21
208.49999915715298
  0
ARC
  8
_0-6_JISSEN
  6
CONTINUOUS
 62
    7
 10
280.49999872874486
 20
213.49999915715298
 40
7.25
 50
136.397181027296
 51
223.60281897270389
  0
ARC
  8
_0-6_JISSEN
  6
CONTINUOUS
 62
    7
 10
277.99999872874486
 20
213.49999915715298
 40
7.2499999999999858
 50
316.39718102729614
 51
43.602818972703815
  0
LINE
  8
_0-6_JISSEN
  6
CONTINUOUS
 62
    7
 10
285.24999872874486
 20
210.99999915715298
 11
287.69999872874496
 21
210.99999915715298
  0
LINE
  8
_0-6_JISSEN
  6
CONTINUOUS
 62
    7
 10
284.03048653362265
 20
209.47560891325028
 11
285.24999872874486
 21
210.99999915715298
  0
LINE
  8
_0-6_JISSEN
  6
CONTINUOUS
 62
    7
 10
351.99999872874463
 20
177.49999915715298
 11
351.99999872874463
 21
197.49999915715298
  0
ARC
  8
_0-6_JISSEN
  6
CONTINUOUS
 62
    7
 10
335.99999872874486
 20
177.49999915715298
 40
16
 50
270
 51
0
  0
ARC
  8
_0-6_JISSEN
  6
CONTINUOUS
 62
    7
 10
335.24999872874486
 20
153.4999991571529
 40
8
 50
90
 51
180
  0
LINE
  8
_0-6_JISSEN
  6
CONTINUOUS
 62
    7
 10
326.08999872874506
 20
143.49999915715298
 11
327.24999872874486
 21
144.6599991571529
  0
LINE
  8
_0-6_JISSEN
  6
CONTINUOUS
 62
    7
 10
327.24999872874486
 20
153.4999991571529
 11
327.24999872874486
 21
144.6599991571529
  0
LINE
  8
_0-6_JISSEN
  6
CONTINUOUS
 62
    7
 10
335.44650663019638
 20
161.4999991571529
 11
335.24999872874486
 21
161.4999991571529
  0
LINE
  8
_0-6_JISSEN
  6
CONTINUOUS
 62
    7
 10
334.99999872874486
 20
161.4999991571529
 11
335.99999872874486
 21
161.4999991571529
  0
CIRCLE
  8
_0-6_JISSEN
  6
CONTINUOUS
 62
    7
 10
320.35369229324795
 20
205.22554555610458
 40
1
  0
LINE
  8
_0-6_JISSEN
  6
CONTINUOUS
 62
    7
 10
317.15075632382735
 20
202.03553306308578
 11
316.44364954264074
 21
202.74263984427228
  0
LINE
  8
_0-6_JISSEN
  6
CONTINUOUS
 62
    7
 10
316.44364954264074
 20
202.74263984427228
 11
321.39339701094667
 21
207.69238731257809
  0
LINE
  8
_0-6_JISSEN
  6
CONTINUOUS
 62
    7
 10
321.39339701094667
 20
207.69238731257809
 11
322.10050379213317
 21
206.98528053139148
  0
ARC
  8
_0-6_JISSEN
  6
CONTINUOUS
 62
    7
 10
323.51471735450627
 20
208.39949409376459
 40
2.00000000000002
 50
225.00000000000011
 51
314.99999999999989
  0
LINE
  8
_0-6_JISSEN
  6
CONTINUOUS
 62
    7
 10
324.92893091687938
 20
206.98528053139148
 11
325.63603769806593
 21
207.69238731257809
  0
LINE
  8
_0-6_JISSEN
  6
CONTINUOUS
 62
    7
 10
325.63603769806593
 20
207.69238731257809
 11
330.58578516637175
 21
202.74263984427228
  0
LINE
  8
_0-6_JISSEN
  6
CONTINUOUS
 62
    7
 10
330.58578516637175
 20
202.74263984427228
 11
329.87867838518514
 21
202.03553306308578
  0
ARC
  8
_0-6_JISSEN
  6
CONTINUOUS
 62
    7
 10
331.2928919475583
 20
200.62131950071262
 40
2.0000000000000799
 50
135.00000000000011
 51
224.99999999999989
  0
LINE
  8
_0-6_JISSEN
  6
CONTINUOUS
 62
    7
 10
329.87867838518514
 20
199.20710593833948
 11
330.58578516637175
 21
198.49999915715298
  0
LINE
  8
_0-6_JISSEN
  6
CONTINUOUS
 62
    7
 10
330.58578516637175
 20
198.49999915715298
 11
325.63603769806593
 21
193.5502516888472
  0
LINE
  8
_0-6_JISSEN
  6
CONTINUOUS
 62
    7
 10
325.63603769806593
 20
193.5502516888472
 11
324.92893091687938
 21
194.25735847003378
  0
ARC
  8
_0-6_JISSEN
  6
CONTINUOUS
 62
    7
 10
323.51471735450633
 20
192.84314490766067
 40
1.9999999999999918
 50
45.000000000001016
 51
135.00000000000242
  0
LINE
  8
_0-6_JISSEN
  6
CONTINUOUS
 62
    7
 10
322.10050379213317
 20
194.25735847003369
 11
321.39339701094667
 21
193.5502516888472
  0
LINE
  8
_0-6_JISSEN
  6
CONTINUOUS
 62
    7
 10
321.39339701094667
 20
193.5502516888472
 11
316.44364954264074
 21
198.49999915715298
  0
LINE
  8
_0-6_JISSEN
  6
CONTINUOUS
 62
    7
 10
316.44364954264074
 20
198.49999915715298
 11
317.15075632382735
 21
199.20710593833948
  0
LINE
  8
_0-6_JISSEN
  6
CONTINUOUS
 62
    7
 10
317.15075632382735
 20
199.20710593833948
 11
317.15075632382735
 21
202.03553306308578
  0
LINE
  8
_0-6_JISSEN
  6
CONTINUOUS
 62
    7
 10
328.11091143221887
 20
196.02512542300008
 11
326.69669786984565
 21
196.02512542300008
  0
LINE
  8
_0-6_JISSEN
  6
CONTINUOUS
 62
    7
 10
327.05025126043927
 20
204.86396018783188
 11
328.46446482281203
 21
204.86396018783188
  0
LINE
  8
_0-6_JISSEN
  6
CONTINUOUS
 62
    7
 10
323.86827074509955
 20
198.85355254774629
 11
328.46446482281203
 21
203.44974662545889
  0
LINE
  8
_0-6_JISSEN
  6
CONTINUOUS
 62
    7
 10
328.11091143221887
 20
197.4393389853731
 11
325.28248430747266
 21
200.26776611011928
  0
ARC
  8
_0-6_JISSEN
  6
CONTINUOUS
 62
    7
 10
313.43353778964223
 20
201.09324408119647
 40
9.058210860967117
 50
325.11085199330643
 51
30.436294255135806
  0
ARC
  8
_0-6_JISSEN
  6
CONTINUOUS
 62
    7
 10
314.67872824614477
 20
201.05402628280137
 40
6.0679502361108124
 50
318.55136156404529
 51
34.381055279078126
  0
ARC
  8
_0-6_JISSEN
  6
CONTINUOUS
 62
    7
 10
319.97918344857356
 20
196.37867881359338
 40
1
 50
137.64445868903229
 51
332.18323136670858
  0
LINE
  8
_0-6_JISSEN
  6
CONTINUOUS
 62
    7
 10
322.45405718272656
 20
200.26776611011928
 11
327.05025126043927
 21
204.86396018783188
  0
LINE
  8
_0-6_JISSEN
  6
CONTINUOUS
 62
    7
 10
326.69669786984565
 20
196.02512542300008
 11
322.45405718272656
 21
200.26776611011928
  0
LINE
  8
_0-6_JISSEN
  6
CONTINUOUS
 62
    7
 10
328.11091143221887
 20
196.02512542300008
 11
328.11091143221887
 21
197.4393389853731
  0
LINE
  8
_0-6_JISSEN
  6
CONTINUOUS
 62
    7
 10
328.46446482281203
 20
204.86396018783188
 11
328.46446482281203
 21
203.44974662545889
  0
ARC
  8
_0-6_JISSEN
  6
CONTINUOUS
 62
    7
 10
326.74999872874486
 20
227.8164055366075
 40
2.8164063794544858
 50
207.41983807365182
 51
332.58016192634818
  0
LINE
  8
_0-6_JISSEN
  6
CONTINUOUS
 62
    7
 10
309.24999872874486
 20
239.99999915715287
 11
344.24999872874486
 21
239.99999915715287
  0
LINE
  8
_0-6_JISSEN
  6
CONTINUOUS
 62
    7
 10
275.24999872874457
 20
248.49999915715287
 11
283.24999872874486
 21
248.49999915715287
  0
LINE
  8
_0-6_JISSEN
  6
CONTINUOUS
 62
    7
 10
275.24999872874486
 20
238.49999915715287
 11
283.24999872874486
 21
238.49999915715287
  0
ARC
  8
_0-6_JISSEN
  6
CONTINUOUS
 62
    7
 10
280.49999872874486
 20
243.49999915715298
 40
7.25
 50
136.397181027296
 51
223.60281897270389
  0
ARC
  8
_0-6_JISSEN
  6
CONTINUOUS
 62
    7
 10
277.99999872874486
 20
243.49999915715298
 40
7.25
 50
316.39718102729614
 51
43.602818972703815
  0
LINE
  8
_0-6_JISSEN
  6
CONTINUOUS
 62
    7
 10
284.03048653362765
 20
247.52438940104966
 11
285.24999872874486
 21
245.99999915715287
  0
LINE
  8
_0-6_JISSEN
  6
CONTINUOUS
 62
    7
 10
380.24999872874486
 20
243.49999915715298
 11
380.24684583076726
 21
213.28620701532259
  0
LINE
  8
_0-6_JISSEN
  6
CONTINUOUS
 62
    7
 10
368.24999872874486
 20
210.99999915715298
 11
368.24999872874486
 21
245.99999915715287
  0
LINE
  8
_0-6_JISSEN
  6
CONTINUOUS
 62
    7
 10
378.24999872874497
 20
218.49999915715298
 11
370.24999872874486
 21
218.49999915715298
  0
LINE
  8
_0-6_JISSEN
  6
CONTINUOUS
 62
    7
 10
370.24999872874457
 20
208.49999915715298
 11
378.24999872874497
 21
208.49999915715298
  0
ARC
  8
_0-6_JISSEN
  6
CONTINUOUS
 62
    7
 10
375.49999872874486
 20
213.49999915715298
 40
7.2499999999999858
 50
136.397181027296
 51
223.60281897270389
  0
LINE
  8
_0-6_JISSEN
  6
CONTINUOUS
 62
    7
 10
365.49999872874457
 20
210.99999915715298
 11
368.24999872874486
 21
210.99999915715298
  0
LINE
  8
_0-6_JISSEN
  6
CONTINUOUS
 62
    7
 10
369.46951092386718
 20
209.47560891325028
 11
368.24999872874486
 21
210.99999915715298
  0
ARC
  8
_0-6_JISSEN
  6
CONTINUOUS
 62
    7
 10
372.99999872874463
 20
213.49999915715298
 40
7.25
 50
316.39718102729614
 51
43.602818972703815
  0
ARC
  8
_0-6_JISSEN
  6
CONTINUOUS
 62
    7
 10
354.24999872874486
 20
228.49999915715298
 40
26.000000000000021
 50
337.38013505195943
 51
22.619864948040377
  0
LINE
  8
_0-6_JISSEN
  6
CONTINUOUS
 62
    7
 10
378.24999872874497
 20
248.49999915715287
 11
370.24999872874486
 21
248.49999915715287
  0
LINE
  8
_0-6_JISSEN
  6
CONTINUOUS
 62
    7
 10
369.46951092386206
 20
247.52438940104966
 11
368.24999872874486
 21
245.99999915715287
  0
ARC
  8
_0-6_JISSEN
  6
CONTINUOUS
 62
    7
 10
375.49999872874486
 20
243.49999915715298
 40
7.25
 50
136.397181027296
 51
146.28320246451059
  0
ARC
  8
_0-6_JISSEN
  6
CONTINUOUS
 62
    7
 10
372.99999872874463
 20
243.49999915715298
 40
7.25
 50
0
 51
43.602818972703851
  0
LINE
  8
_0-6_JISSEN
  6
CONTINUOUS
 62
    7
 10
338.24999872874668
 20
131.4999991571531
 11
338.24999872874668
 21
111.4999991571531
  0
LINE
  8
_0-1_ITTEN
  6
CENTER
 62
    1
 10
313.24999872874486
 20
244.99999915715298
 11
313.24999872874508
 21
77.24967931016829
  0
LINE
  8
_0-6_JISSEN
  6
CONTINUOUS
 62
    7
 10
332.74999872874668
 20
111.4999991571531
 11
400.74999872874844
 21
111.4999991571529
  0
LINE
  8
_0-6_JISSEN
  6
CONTINUOUS
 62
    7
 10
225.74999872874076
 20
111.49999915715148
 11
293.74999872874673
 21
111.4999991571531
  0
LINE
  8
_0-6_JISSEN
  6
CONTINUOUS
 62
    7
 10
288.24999872874304
 20
131.4999991571529
 11
288.24999872874304
 21
111.4999991571529
  0
LINE
  8
_0-6_JISSEN
  6
CONTINUOUS
 62
    7
 10
300.40999872874488
 20
143.49999915715298
 11
299.24999872874486
 21
144.6599991571529
  0
LINE
  8
_0-6_JISSEN
  6
CONTINUOUS
 62
    7
 10
52.409998728744768
 20
183.4999991571525
 11
51.249998728744742
 21
184.65999915715258
  0
LINE
  8
_0-6_JISSEN
  6
CONTINUOUS
 62
    7
 10
40.249998728742952
 20
131.4999991571529
 11
40.249998728742952
 21
111.4999991571529
  0
LINE
  8
_0-6_JISSEN
  6
CONTINUOUS
 62
    7
 10
-22.250001271259237
 20
111.49999915715148
 11
45.749998728746675
 21
111.4999991571531
  0
LINE
  8
_0-6_JISSEN
  6
CONTINUOUS
 62
    7
 10
84.749998728746647
 20
111.4999991571531
 11
152.74999872874835
 21
111.4999991571529
  0
LINE
  8
_0-1_ITTEN
  6
CENTER
 62
    1
 10
65.249998728744856
 20
284.99999915715262
 11
65.249998728744856
 21
77.249679310167892
  0
LINE
  8
_0-6_JISSEN
  6
CONTINUOUS
 62
    7
 10
90.249998728746647
 20
131.4999991571531
 11
90.249998728746647
 21
111.4999991571531
  0
ARC
  8
_0-6_JISSEN
  6
CONTINUOUS
 62
    7
 10
124.99999872874474
 20
283.49999915715262
 40
7.25
 50
0
 51
43.602818972703851
  0
ARC
  8
_0-6_JISSEN
  6
CONTINUOUS
 62
    7
 10
127.49999872874474
 20
283.49999915715262
 40
7.25
 50
136.397181027296
 51
146.28320246451059
  0
LINE
  8
_0-6_JISSEN
  6
CONTINUOUS
 62
    7
 10
121.46951092386195
 20
287.52438940104923
 11
120.24999872874474
 21
285.99999915715262
  0
LINE
  8
_0-6_JISSEN
  6
CONTINUOUS
 62
    7
 10
130.24999872874517
 20
288.49999915715262
 11
122.24999872874474
 21
288.49999915715262
  0
ARC
  8
_0-6_JISSEN
  6
CONTINUOUS
 62
    7
 10
106.24999872874474
 20
268.49999915715262
 40
26.000000000000021
 50
337.38013505195943
 51
22.619864948040377
  0
ARC
  8
_0-6_JISSEN
  6
CONTINUOUS
 62
    7
 10
124.99999872874474
 20
253.49999915715259
 40
7.25
 50
316.39718102729614
 51
43.602818972703815
  0
LINE
  8
_0-6_JISSEN
  6
CONTINUOUS
 62
    7
 10
121.46951092386695
 20
249.47560891325
 11
120.24999872874474
 21
250.99999915715259
  0
LINE
  8
_0-6_JISSEN
  6
CONTINUOUS
 62
    7
 10
117.49999872874474
 20
250.99999915715259
 11
120.24999872874474
 21
250.99999915715259
  0
ARC
  8
_0-6_JISSEN
  6
CONTINUOUS
 62
    7
 10
127.49999872874474
 20
253.49999915715259
 40
7.2499999999999858
 50
136.397181027296
 51
223.60281897270389
  0
LINE
  8
_0-6_JISSEN
  6
CONTINUOUS
 62
    7
 10
122.24999872874446
 20
248.49999915715259
 11
130.24999872874474
 21
248.49999915715259
  0
LINE
  8
_0-6_JISSEN
  6
CONTINUOUS
 62
    7
 10
130.24999872874474
 20
258.49999915715262
 11
122.24999872874474
 21
258.49999915715262
  0
LINE
  8
_0-6_JISSEN
  6
CONTINUOUS
 62
    7
 10
120.24999872874474
 20
250.99999915715259
 11
120.24999872874474
 21
285.99999915715262
  0
LINE
  8
_0-6_JISSEN
  6
CONTINUOUS
 62
    7
 10
132.24999872874474
 20
283.49999915715262
 11
132.24684583076726
 21
253.28620701532228
  0
LINE
  8
_0-6_JISSEN
  6
CONTINUOUS
 62
    7
 10
36.030486533627652
 20
287.52438940104923
 11
37.249998728744856
 21
285.99999915715262
  0
ARC
  8
_0-6_JISSEN
  6
CONTINUOUS
 62
    7
 10
29.999998728744799
 20
283.49999915715262
 40
7.25
 50
316.39718102729614
 51
43.602818972703815
  0
ARC
  8
_0-6_JISSEN
  6
CONTINUOUS
 62
    7
 10
32.499998728744799
 20
283.49999915715262
 40
7.25
 50
136.397181027296
 51
223.60281897270389
  0
LINE
  8
_0-6_JISSEN
  6
CONTINUOUS
 62
    7
 10
27.249998728744856
 20
278.49999915715262
 11
35.249998728744828
 21
278.49999915715262
  0
LINE
  8
_0-6_JISSEN
  6
CONTINUOUS
 62
    7
 10
27.249998728744458
 20
288.49999915715262
 11
35.249998728744828
 21
288.49999915715262
  0
LINE
  8
_0-6_JISSEN
  6
CONTINUOUS
 62
    7
 10
61.249998728744742
 20
279.99999915715262
 11
96.249998728744742
 21
279.99999915715262
  0
ARC
  8
_0-6_JISSEN
  6
CONTINUOUS
 62
    7
 10
78.749998728744742
 20
267.81640553660714
 40
2.8164063794544858
 50
207.41983807365182
 51
332.58016192634818
  0
LINE
  8
_0-6_JISSEN
  6
CONTINUOUS
 62
    7
 10
80.464464822812062
 20
244.86396018783157
 11
80.464464822812062
 21
243.44974662545846
  0
LINE
  8
_0-6_JISSEN
  6
CONTINUOUS
 62
    7
 10
80.110911432218757
 20
236.02512542299971
 11
80.110911432218757
 21
237.43933898537281
  0
LINE
  8
_0-6_JISSEN
  6
CONTINUOUS
 62
    7
 10
78.69669786984565
 20
236.02512542299971
 11
74.454057182726359
 21
240.26776611011897
  0
LINE
  8
_0-6_JISSEN
  6
CONTINUOUS
 62
    7
 10
74.454057182726359
 20
240.26776611011897
 11
79.050251260439069
 21
244.86396018783157
  0
ARC
  8
_0-6_JISSEN
  6
CONTINUOUS
 62
    7
 10
71.979183448573451
 20
236.3786788135931
 40
1
 50
137.64445868903229
 51
332.18323136670858
  0
ARC
  8
_0-6_JISSEN
  6
CONTINUOUS
 62
    7
 10
66.678728246144658
 20
241.054026282801
 40
6.0679502361108124
 50
318.55136156404529
 51
34.381055279078126
  0
ARC
  8
_0-6_JISSEN
  6
CONTINUOUS
 62
    7
 10
65.433537789642145
 20
241.09324408119599
 40
9.058210860967117
 50
325.11085199330643
 51
30.436294255135806
  0
LINE
  8
_0-6_JISSEN
  6
CONTINUOUS
 62
    7
 10
80.110911432218757
 20
237.43933898537281
 11
77.282484307472544
 21
240.26776611011897
  0
LINE
  8
_0-6_JISSEN
  6
CONTINUOUS
 62
    7
 10
75.868270745099466
 20
238.85355254774586
 11
80.464464822812062
 21
243.44974662545846
  0
LINE
  8
_0-6_JISSEN
  6
CONTINUOUS
 62
    7
 10
79.050251260439069
 20
244.86396018783157
 11
80.464464822812062
 21
244.86396018783157
  0
LINE
  8
_0-6_JISSEN
  6
CONTINUOUS
 62
    7
 10
80.110911432218757
 20
236.02512542299971
 11
78.69669786984565
 21
236.02512542299971
  0
LINE
  8
_0-6_JISSEN
  6
CONTINUOUS
 62
    7
 10
69.150756323827267
 20
242.03553306308541
 11
68.44364954264077
 21
242.74263984427191
  0
LINE
  8
_0-6_JISSEN
  6
CONTINUOUS
 62
    7
 10
68.44364954264077
 20
242.74263984427191
 11
73.393397010946558
 21
247.69238731257778
  0
LINE
  8
_0-6_JISSEN
  6
CONTINUOUS
 62
    7
 10
73.393397010946558
 20
247.69238731257778
 11
74.100503792133054
 21
246.98528053139128
  0
ARC
  8
_0-6_JISSEN
  6
CONTINUOUS
 62
    7
 10
75.514717354506161
 20
248.39949409376439
 40
2.00000000000002
 50
225.00000000000011
 51
314.99999999999989
  0
LINE
  8
_0-6_JISSEN
  6
CONTINUOUS
 62
    7
 10
76.928930916879267
 20
246.98528053139128
 11
77.636037698065962
 21
247.69238731257778
  0
LINE
  8
_0-6_JISSEN
  6
CONTINUOUS
 62
    7
 10
77.636037698065962
 20
247.69238731257778
 11
82.585785166371664
 21
242.74263984427191
  0
LINE
  8
_0-6_JISSEN
  6
CONTINUOUS
 62
    7
 10
82.585785166371664
 20
242.74263984427191
 11
81.878678385185168
 21
242.03553306308541
  0
ARC
  8
_0-6_JISSEN
  6
CONTINUOUS
 62
    7
 10
83.292891947558331
 20
240.62131950071225
 40
2.0000000000001004
 50
135.00000000000011
 51
224.99999999999989
  0
LINE
  8
_0-6_JISSEN
  6
CONTINUOUS
 62
    7
 10
81.878678385185168
 20
239.20710593833908
 11
82.585785166371664
 21
238.49999915715259
  0
LINE
  8
_0-6_JISSEN
  6
CONTINUOUS
 62
    7
 10
82.585785166371664
 20
238.49999915715259
 11
77.636037698065962
 21
233.55025168884677
  0
LINE
  8
_0-6_JISSEN
  6
CONTINUOUS
 62
    7
 10
77.636037698065962
 20
233.55025168884677
 11
76.928930916879267
 21
234.25735847003338
  0
ARC
  8
_0-6_JISSEN
  6
CONTINUOUS
 62
    7
 10
75.514717354506161
 20
232.8431449076603
 40
1.9999999999999918
 50
44.999999999999297
 51
135.00000000000068
  0
LINE
  8
_0-6_JISSEN
  6
CONTINUOUS
 62
    7
 10
74.100503792133054
 20
234.25735847003338
 11
73.393397010946558
 21
233.55025168884677
  0
LINE
  8
_0-6_JISSEN
  6
CONTINUOUS
 62
    7
 10
73.393397010946558
 20
233.55025168884677
 11
68.44364954264077
 21
238.49999915715259
  0
LINE
  8
_0-6_JISSEN
  6
CONTINUOUS
 62
    7
 10
68.44364954264077
 20
238.49999915715259
 11
69.150756323827267
 21
239.20710593833908
  0
LINE
  8
_0-6_JISSEN
  6
CONTINUOUS
 62
    7
 10
69.150756323827267
 20
239.20710593833908
 11
69.150756323827267
 21
242.03553306308541
  0
CIRCLE
  8
_0-6_JISSEN
  6
CONTINUOUS
 62
    7
 10
72.353692293247946
 20
245.22554555610427
 40
1
  0
LINE
  8
_0-6_JISSEN
  6
CONTINUOUS
 62
    7
 10
86.999998728744742
 20
201.49999915715259
 11
87.999998728744742
 21
201.49999915715259
  0
LINE
  8
_0-6_JISSEN
  6
CONTINUOUS
 62
    7
 10
87.446506630196268
 20
201.49999915715259
 11
87.249998728744742
 21
201.49999915715259
  0
LINE
  8
_0-6_JISSEN
  6
CONTINUOUS
 62
    7
 10
79.249998728744742
 20
193.49999915715259
 11
79.249998728744742
 21
184.65999915715258
  0
LINE
  8
_0-6_JISSEN
  6
CONTINUOUS
 62
    7
 10
78.08999872874486
 20
183.4999991571525
 11
79.249998728744742
 21
184.65999915715258
  0
ARC
  8
_0-6_JISSEN
  6
CONTINUOUS
 62
    7
 10
87.249998728744742
 20
193.49999915715259
 40
8
 50
90
 51
180
  0
ARC
  8
_0-6_JISSEN
  6
CONTINUOUS
 62
    7
 10
87.999998728744742
 20
217.49999915715259
 40
16
 50
270
 51
0
  0
LINE
  8
_0-6_JISSEN
  6
CONTINUOUS
 62
    7
 10
103.99999872874474
 20
217.49999915715259
 11
103.99999872874474
 21
237.49999915715259
  0
LINE
  8
_0-6_JISSEN
  6
CONTINUOUS
 62
    7
 10
36.030486533622593
 20
249.47560891325
 11
37.249998728744856
 21
250.99999915715259
  0
LINE
  8
_0-6_JISSEN
  6
CONTINUOUS
 62
    7
 10
37.249998728744856
 20
250.99999915715259
 11
39.699998728744845
 21
250.99999915715259
  0
ARC
  8
_0-6_JISSEN
  6
CONTINUOUS
 62
    7
 10
29.999998728744799
 20
253.49999915715259
 40
7.2499999999999858
 50
316.39718102729614
 51
43.602818972703815
  0
ARC
  8
_0-6_JISSEN
  6
CONTINUOUS
 62
    7
 10
32.499998728744799
 20
253.49999915715259
 40
7.25
 50
136.397181027296
 51
223.60281897270389
  0
LINE
  8
_0-6_JISSEN
  6
CONTINUOUS
 62
    7
 10
27.249998728744629
 20
248.49999915715259
 11
35.249998728744828
 21
248.49999915715259
  0
LINE
  8
_0-6_JISSEN
  6
CONTINUOUS
 62
    7
 10
27.249998728744856
 20
258.49999915715262
 11
35.249998728744828
 21
258.49999915715262
  0
ARC
  8
_0-6_JISSEN
  6
CONTINUOUS
 62
    7
 10
39.699998728744845
 20
241.99999915715259
 40
9
 50
0
 51
90
  0
ARC
  8
_0-6_JISSEN
  6
CONTINUOUS
 62
    7
 10
50.699998728744845
 20
203.2015612758691
 40
2
 50
180
 51
218.65980825408991
  0
ARC
  8
_0-6_JISSEN
  6
CONTINUOUS
 62
    7
 10
49.249998728744742
 20
198.61093703843619
 40
2
 50
0
 51
38.65980825408996
  0
LINE
  8
_0-6_JISSEN
  6
CONTINUOUS
 62
    7
 10
51.249998728744742
 20
198.61093703843619
 11
51.249998728744742
 21
184.65999915715258
  0
LINE
  8
_0-6_JISSEN
  6
CONTINUOUS
 62
    7
 10
49.138261109858661
 20
201.95217118076039
 11
50.811736347630955
 21
199.8603271335451
  0
LINE
  8
_0-6_JISSEN
  6
CONTINUOUS
 62
    7
 10
48.699998728744845
 20
203.2015612758691
 11
48.699998728744845
 21
241.99999915715259
  0
LINE
  8
_0-6_JISSEN
  6
CONTINUOUS
 62
    7
 10
68.44364954264077
 20
241.3284262818988
 11
67.029435980267664
 21
242.74263984427191
  0
LINE
  8
_0-6_JISSEN
  6
CONTINUOUS
 62
    7
 10
67.029435980267664
 20
242.74263984427191
 11
73.393397010946558
 21
249.10660087495089
  0
LINE
  8
_0-6_JISSEN
  6
CONTINUOUS
 62
    7
 10
73.393397010946558
 20
249.10660087495089
 11
74.807610573319664
 21
247.69238731257778
  0
ARC
  8
_0-6_JISSEN
  6
CONTINUOUS
 62
    7
 10
75.514717354506274
 20
248.39949409376436
 40
1.0000000000000684
 50
225
 51
315
  0
LINE
  8
_0-6_JISSEN
  6
CONTINUOUS
 62
    7
 10
76.221824135692856
 20
247.69238731257778
 11
77.636037698065962
 21
249.10660087495089
  0
LINE
  8
_0-6_JISSEN
  6
CONTINUOUS
 62
    7
 10
77.636037698065962
 20
249.10660087495089
 11
83.999998728744742
 21
242.74263984427191
  0
LINE
  8
_0-6_JISSEN
  6
CONTINUOUS
 62
    7
 10
83.999998728744742
 20
242.74263984427191
 11
82.585785166371664
 21
241.3284262818988
  0
ARC
  8
_0-6_JISSEN
  6
CONTINUOUS
 62
    7
 10
83.292891947558218
 20
240.62131950071225
 40
1.000000000000008
 50
135
 51
225
  0
LINE
  8
_0-6_JISSEN
  6
CONTINUOUS
 62
    7
 10
82.585785166371664
 20
239.91421271952569
 11
83.999998728744742
 21
238.49999915715259
  0
LINE
  8
_0-6_JISSEN
  6
CONTINUOUS
 62
    7
 10
83.999998728744742
 20
238.49999915715259
 11
77.636037698065962
 21
232.13603812647366
  0
LINE
  8
_0-6_JISSEN
  6
CONTINUOUS
 62
    7
 10
77.636037698065962
 20
232.13603812647366
 11
76.221824135692856
 21
233.55025168884677
  0
ARC
  8
_0-6_JISSEN
  6
CONTINUOUS
 62
    7
 10
75.514717354506274
 20
232.84314490766019
 40
1.0000000000000562
 50
44.999999999999297
 51
135.00000000000068
  0
LINE
  8
_0-6_JISSEN
  6
CONTINUOUS
 62
    7
 10
74.807610573319664
 20
233.55025168884677
 11
73.393397010946558
 21
232.13603812647366
  0
LINE
  8
_0-6_JISSEN
  6
CONTINUOUS
 62
    7
 10
73.393397010946558
 20
232.13603812647366
 11
67.029435980267664
 21
238.49999915715259
  0
LINE
  8
_0-6_JISSEN
  6
CONTINUOUS
 62
    7
 10
67.029435980267664
 20
238.49999915715259
 11
68.44364954264077
 21
239.91421271952569
  0
LINE
  8
_0-6_JISSEN
  6
CONTINUOUS
 62
    7
 10
68.44364954264077
 20
239.91421271952569
 11
68.44364954264077
 21
241.3284262818988
  0
TEXT
  8
_0-6_JISSEN
 62
    7
 10
61.669710295802957
 20
222.7093646732734
 40
8
 41
0.9
 50
0
  1
PAT
  0
LINE
  8
_0-6_JISSEN
  6
CONTINUOUS
 62
    7
 10
78.08999872874486
 20
183.4999991571525
 11
52.409998728744768
 21
183.4999991571525
  0
LINE
  8
_0-1_ITTEN
  6
CENTER
 62
    1
 10
20.249998728744828
 20
268.49999915715262
 11
51.249998728744742
 21
268.49999915715262
  0
LINE
  8
_0-6_JISSEN
  6
CONTINUOUS
 62
    7
 10
37.249998728744856
 20
250.99999915715259
 11
37.249998728744856
 21
285.99999915715262
  0
ARC
  8
_0-6_JISSEN
  6
CONTINUOUS
 62
    7
 10
51.249998728744742
 20
268.49999915715262
 40
26.000000000000021
 50
157.38013505195929
 51
202.6198649480406
  0
ARC
  8
_0-6_JISSEN
  6
CONTINUOUS
 62
    7
 10
11.249998728744828
 20
268.49999915715262
 40
25.999999999999972
 50
337.38013505195943
 51
22.619864948040608
  0
LINE
  8
_0-6_JISSEN
  6
CONTINUOUS
 62
    7
 10
25.249998728744799
 20
253.49999915715259
 11
25.249998728744799
 21
283.49999915715262
  0
ARC
  8
_0-6_JISSEN
  6
CONTINUOUS
 62
    7
 10
38.361514720413055
 20
239.44606312382538
 40
46.567203351660062
 50
35.547854341555372
 51
91.367727056913395
  0
LINE
  8
_0-6_JISSEN
  6
CONTINUOUS
 62
    7
 10
46.249998728744742
 20
268.49999915715262
 11
42.249998728744742
 21
270.99999915715262
  0
LINE
  8
_0-6_JISSEN
  6
CONTINUOUS
 62
    7
 10
42.249998728744742
 20
270.99999915715262
 11
42.249998728744742
 21
269.49999915715262
  0
LINE
  8
_0-6_JISSEN
  6
CONTINUOUS
 62
    7
 10
42.249998728744742
 20
269.49999915715262
 11
38.249998728744742
 21
269.49999915715262
  0
LINE
  8
_0-6_JISSEN
  6
CONTINUOUS
 62
    7
 10
38.249998728744742
 20
269.49999915715262
 11
38.249998728744742
 21
267.49999915715262
  0
LINE
  8
_0-6_JISSEN
  6
CONTINUOUS
 62
    7
 10
38.249998728744742
 20
267.49999915715262
 11
42.249998728744742
 21
267.49999915715262
  0
LINE
  8
_0-6_JISSEN
  6
CONTINUOUS
 62
    7
 10
42.249998728744742
 20
267.49999915715262
 11
42.249998728744742
 21
265.99999915715262
  0
LINE
  8
_0-6_JISSEN
  6
CONTINUOUS
 62
    7
 10
42.249998728744742
 20
265.99999915715262
 11
46.249998728744742
 21
268.49999915715262
  0
ARC
  8
_0-6_JISSEN
  6
CONTINUOUS
 62
    7
 10
117.49999872874474
 20
237.49999915715259
 40
13.5
 50
90
 51
180
  0
ARC
  8
_0-6_JISSEN
  6
CONTINUOUS
 62
    7
 10
119.13848273707666
 20
239.44606312382538
 40
46.567203351660062
 50
88.632272943086548
 51
144.45214565844461
  0
LINE
  8
_0-6_JISSEN
  6
CONTINUOUS
 62
    7
 10
119.24999872874474
 20
268.49999915715262
 11
115.24999872874474
 21
270.99999915715262
  0
LINE
  8
_0-6_JISSEN
  6
CONTINUOUS
 62
    7
 10
115.24999872874474
 20
270.99999915715262
 11
115.24999872874474
 21
269.49999915715262
  0
LINE
  8
_0-6_JISSEN
  6
CONTINUOUS
 62
    7
 10
115.24999872874474
 20
269.49999915715262
 11
111.24999872874474
 21
269.49999915715262
  0
LINE
  8
_0-6_JISSEN
  6
CONTINUOUS
 62
    7
 10
111.24999872874474
 20
269.49999915715262
 11
111.24999872874474
 21
267.49999915715262
  0
LINE
  8
_0-6_JISSEN
  6
CONTINUOUS
 62
    7
 10
111.24999872874474
 20
267.49999915715262
 11
115.24999872874474
 21
267.49999915715262
  0
LINE
  8
_0-6_JISSEN
  6
CONTINUOUS
 62
    7
 10
115.24999872874474
 20
267.49999915715262
 11
115.24999872874474
 21
265.99999915715262
  0
LINE
  8
_0-6_JISSEN
  6
CONTINUOUS
 62
    7
 10
115.24999872874474
 20
265.99999915715262
 11
119.24999872874474
 21
268.49999915715262
  0
LINE
  8
_0-1_ITTEN
  6
CENTER
 62
    1
 10
106.24999872874474
 20
268.49999915715262
 11
137.24999872874474
 21
268.49999915715262
  0
ARC
  8
_0-6_JISSEN
  6
CONTINUOUS
 62
    7
 10
146.24999872874474
 20
268.49999915715262
 40
26.000000000000021
 50
157.38013505195951
 51
202.6198649480406
  0
ARC
  8
_0-6_JISSEN
  6
CONTINUOUS
 62
    7
 10
124.99999872874474
 20
283.49999915715262
 40
7.25
 50
316.39718102729614
 51
43.602818972703879
  0
LINE
  8
_0-6_JISSEN
  6
CONTINUOUS
 62
    7
 10
130.24999872874474
 20
278.49999915715262
 11
122.24999872874474
 21
278.49999915715262
  0
ARC
  8
_0-6_JISSEN
  6
CONTINUOUS
 62
    7
 10
127.49999872874474
 20
283.49999915715262
 40
7.2499999999999858
 50
136.397181027296
 51
223.60281897270389
  0
LINE
  8
_0-6_JISSEN
  6
CONTINUOUS
 62
    7
 10
51.249998728744742
 20
184.65999915715258
 11
79.249998728744742
 21
184.65999915715258
  0
LINE
  8
_0-6_JISSEN
  6
CONTINUOUS
 62
    7
 10
83.749998728746647
 20
131.4999991571531
 11
154.84758920022057
 21
131.4999991571529
  0
LINE
  8
_0-6_JISSEN
  6
CONTINUOUS
 62
    7
 10
-24.347591742731254
 20
131.49999915715148
 11
46.749998728746675
 21
131.4999991571531
  0
LINE
  8
_0-5_SAISEN
  6
CONTINUOUS
 62
    4
 10
-24.34759174273114
 20
131.49999915715208
 11
-24.402167557314613
 21
131.1970181009325
  0
LINE
  8
_0-5_SAISEN
  6
CONTINUOUS
 62
    4
 10
-24.402167557314613
 20
131.1970181009325
 11
-24.634495379732414
 21
130.158057051443
  0
LINE
  8
_0-5_SAISEN
  6
CONTINUOUS
 62
    4
 10
-24.634495379732414
 20
130.158057051443
 11
-24.875245963083842
 21
129.0829846627081
  0
LINE
  8
_0-5_SAISEN
  6
CONTINUOUS
 62
    4
 10
-24.875245963083842
 20
129.0829846627081
 11
-25.078094122234177
 21
127.9888048282798
  0
LINE
  8
_0-5_SAISEN
  6
CONTINUOUS
 62
    4
 10
-25.078094122234177
 20
127.9888048282798
 11
-25.196714672048699
 21
126.89252144171039
  0
LINE
  8
_0-5_SAISEN
  6
CONTINUOUS
 62
    4
 10
-25.196714672048699
 20
126.89252144171039
 11
-25.184782427392804
 21
125.811138396552
  0
LINE
  8
_0-5_SAISEN
  6
CONTINUOUS
 62
    4
 10
-25.184782427392804
 20
125.811138396552
 11
-24.995972203131771
 21
124.76165958635659
  0
LINE
  8
_0-5_SAISEN
  6
CONTINUOUS
 62
    4
 10
-24.995972203131771
 20
124.76165958635659
 11
-24.583958814130995
 21
123.7610889046764
  0
LINE
  8
_0-5_SAISEN
  6
CONTINUOUS
 62
    4
 10
-24.583958814130995
 20
123.7610889046764
 11
-23.930847711419631
 21
122.81069258071417
  0
LINE
  8
_0-5_SAISEN
  6
CONTINUOUS
 62
    4
 10
-23.930847711419631
 20
122.81069258071417
 11
-23.132466890682679
 21
121.84878618627508
  0
LINE
  8
_0-5_SAISEN
  6
CONTINUOUS
 62
    4
 10
-23.132466890682679
 20
121.84878618627508
 11
-22.3130749837689
 21
120.79794762881508
  0
LINE
  8
_0-5_SAISEN
  6
CONTINUOUS
 62
    4
 10
-22.3130749837689
 20
120.79794762881508
 11
-21.596930622527282
 21
119.58075481578967
  0
LINE
  8
_0-5_SAISEN
  6
CONTINUOUS
 62
    4
 10
-21.596930622527282
 20
119.58075481578967
 11
-21.108292438806586
 21
118.11978565465517
  0
LINE
  8
_0-5_SAISEN
  6
CONTINUOUS
 62
    4
 10
-21.108292438806586
 20
118.11978565465517
 11
-20.971419064455688
 21
116.3376180528669
  0
LINE
  8
_0-5_SAISEN
  6
CONTINUOUS
 62
    4
 10
-20.971419064455688
 20
116.3376180528669
 11
-21.310569131323376
 21
114.15682991788088
  0
LINE
  8
_0-5_SAISEN
  6
CONTINUOUS
 62
    4
 10
-21.310569131323376
 20
114.15682991788088
 11
-22.250001271258668
 21
111.4999991571531
  0
LINE
  8
_0-5_SAISEN
  6
CONTINUOUS
 62
    4
 10
154.84758920022057
 20
131.49999915715298
 11
154.90216501480427
 21
131.1970181009325
  0
LINE
  8
_0-5_SAISEN
  6
CONTINUOUS
 62
    4
 10
154.90216501480427
 20
131.1970181009325
 11
155.13449283722207
 21
130.158057051443
  0
LINE
  8
_0-5_SAISEN
  6
CONTINUOUS
 62
    4
 10
155.13449283722207
 20
130.158057051443
 11
155.37524342057355
 21
129.0829846627081
  0
LINE
  8
_0-5_SAISEN
  6
CONTINUOUS
 62
    4
 10
155.37524342057355
 20
129.0829846627081
 11
155.57809157972386
 21
127.9888048282798
  0
LINE
  8
_0-5_SAISEN
  6
CONTINUOUS
 62
    4
 10
155.57809157972386
 20
127.9888048282798
 11
155.69671212953835
 21
126.89252144171039
  0
LINE
  8
_0-5_SAISEN
  6
CONTINUOUS
 62
    4
 10
155.69671212953835
 20
126.89252144171039
 11
155.68477988488246
 21
125.811138396552
  0
LINE
  8
_0-5_SAISEN
  6
CONTINUOUS
 62
    4
 10
155.68477988488246
 20
125.811138396552
 11
155.49596966062145
 21
124.76165958635659
  0
LINE
  8
_0-5_SAISEN
  6
CONTINUOUS
 62
    4
 10
155.49596966062145
 20
124.76165958635659
 11
155.08395627162065
 21
123.7610889046764
  0
LINE
  8
_0-5_SAISEN
  6
CONTINUOUS
 62
    4
 10
155.08395627162065
 20
123.7610889046764
 11
154.43084516890934
 21
122.81069258071417
  0
LINE
  8
_0-5_SAISEN
  6
CONTINUOUS
 62
    4
 10
154.43084516890934
 20
122.81069258071417
 11
153.63246434817236
 21
121.84878618627508
  0
LINE
  8
_0-5_SAISEN
  6
CONTINUOUS
 62
    4
 10
153.63246434817236
 20
121.84878618627508
 11
152.81307244125856
 21
120.79794762881508
  0
LINE
  8
_0-5_SAISEN
  6
CONTINUOUS
 62
    4
 10
152.81307244125856
 20
120.79794762881508
 11
152.09692808001697
 21
119.58075481578967
  0
LINE
  8
_0-5_SAISEN
  6
CONTINUOUS
 62
    4
 10
152.09692808001697
 20
119.58075481578967
 11
151.60828989629627
 21
118.11978565465517
  0
LINE
  8
_0-5_SAISEN
  6
CONTINUOUS
 62
    4
 10
151.60828989629627
 20
118.11978565465517
 11
151.47141652194534
 21
116.3376180528669
  0
LINE
  8
_0-5_SAISEN
  6
CONTINUOUS
 62
    4
 10
151.47141652194534
 20
116.3376180528669
 11
151.81056658881306
 21
114.15682991788088
  0
LINE
  8
_0-5_SAISEN
  6
CONTINUOUS
 62
    4
 10
151.81056658881306
 20
114.15682991788088
 11
152.74999872874835
 21
111.4999991571531
  0
LINE
  8
_0-3_SUNPOU
  6
CONTINUOUS
 62
    3
 10
154.24999872874835
 20
111.4999991571531
 11
189.24999872874486
 21
111.4999991571531
  0
LINE
  8
_0-6_JISSEN
  6
CONTINUOUS
 62
    7
 10
75.785001602280545
 20
183.4999991571529
 11
76.003883953552162
 21
176.49611393234619
  0
LINE
  8
_0-5_SAISEN
  6
CONTINUOUS
 62
    7
 10
74.623001602280453
 20
183.4999991571529
 11
74.779259410801046
 21
178.49999915715298
  0
LINE
  8
_0-5_SAISEN
  6
CONTINUOUS
 62
    7
 10
74.779259410801046
 20
178.49999915715298
 11
76.003883953552162
 21
176.49611393234619
  0
LINE
  8
_0-6_JISSEN
  6
CONTINUOUS
 62
    7
 10
75.941259410801052
 20
178.49999915715298
 11
54.558738046687836
 21
178.49999915715298
  0
LINE
  8
_0-6_JISSEN
  6
CONTINUOUS
 62
    7
 10
76.003883953552162
 20
176.49611393234619
 11
76.999998728745254
 21
175.4999991571529
  0
LINE
  8
_0-6_JISSEN
  6
CONTINUOUS
 62
    7
 10
54.496113503936755
 20
176.4961139323444
 11
76.003883953552162
 21
176.49611393234619
  0
LINE
  8
_0-6_JISSEN
  6
CONTINUOUS
 62
    7
 10
54.496113503937352
 20
176.49611393234619
 11
53.499998728744345
 21
175.4999991571529
  0
LINE
  8
_0-5_SAISEN
  6
CONTINUOUS
 62
    7
 10
55.720738046688552
 20
178.49999915715298
 11
54.496113503937352
 21
176.49611393234619
  0
LINE
  8
_0-6_JISSEN
  6
CONTINUOUS
 62
    7
 10
54.714995855209054
 20
183.4999991571529
 11
54.496113503937352
 21
176.49611393234619
  0
LINE
  8
_0-5_SAISEN
  6
CONTINUOUS
 62
    7
 10
55.87699585520906
 20
183.4999991571529
 11
55.720738046688552
 21
178.49999915715298
  0
LINE
  8
_0-6_JISSEN
  6
CONTINUOUS
 62
    7
 10
78.249998728744856
 20
175.4999991571529
 11
78.249998728744856
 21
143.4999991571525
  0
LINE
  8
_0-6_JISSEN
  6
CONTINUOUS
 62
    7
 10
52.249998728744742
 20
175.4999991571529
 11
52.249998728744856
 21
143.4999991571525
  0
LINE
  8
_0-6_JISSEN
  6
CONTINUOUS
 62
    7
 10
347.24999872874565
 20
111.4999991571616
 11
331.74999872874236
 21
111.49999915715767
  0
LINE
  8
_0-6_JISSEN
  6
CONTINUOUS
 62
    7
 10
296.09999872874266
 20
106.49999915715469
 11
296.19999872874257
 21
106.49999915715279
  0
LINE
  8
_0-6_JISSEN
  6
CONTINUOUS
 62
    7
 10
330.29999872874714
 20
106.49999915715279
 11
330.39999872874716
 21
106.49999915715469
  0
LINE
  8
_0-6_JISSEN
  6
CONTINUOUS
 62
    7
 10
295.59999872874408
 20
137.89999915715759
 11
294.99999872874548
 21
138.4999991571585
  0
LINE
  8
_0-6_JISSEN
  6
CONTINUOUS
 62
    7
 10
294.99999872874548
 20
138.4999991571585
 11
294.74999872874548
 21
138.2499991571585
  0
LINE
  8
_0-6_JISSEN
  6
CONTINUOUS
 62
    7
 10
296.99999872874537
 20
135.9999991571612
 11
297.39999872874535
 21
136.49999915715318
  0
LINE
  8
_0-6_JISSEN
  6
CONTINUOUS
 62
    7
 10
299.49999872874548
 20
135.99999915716148
 11
299.89999872874535
 21
136.49999915715338
  0
LINE
  8
_0-6_JISSEN
  6
CONTINUOUS
 62
    7
 10
295.74999872874616
 20
135.99999915715318
 11
296.24999872874616
 21
136.49999915715318
  0
LINE
  8
_0-6_JISSEN
  6
CONTINUOUS
 62
    7
 10
295.74999872874616
 20
135.99999915715318
 11
296.99999872874537
 21
135.99999915715318
  0
LINE
  8
_0-6_JISSEN
  6
CONTINUOUS
 62
    7
 10
295.74999872874616
 20
133.94999915715249
 11
295.74999872874616
 21
134.54999915715328
  0
LINE
  8
_0-6_JISSEN
  6
CONTINUOUS
 62
    7
 10
295.74999872874616
 20
132.44999915715459
 11
295.74999872874616
 21
133.0499991571532
  0
LINE
  8
_0-6_JISSEN
  6
CONTINUOUS
 62
    7
 10
295.74999872874616
 20
130.99999915715318
 11
295.74999872874616
 21
131.54999915715328
  0
ARC
  8
_0-6_JISSEN
  6
CONTINUOUS
 62
    7
 10
296.55020092411985
 20
134.999999157161
 40
0.6362531454111287
 50
314.98712495038268
 51
45.01287504962653
  0
ARC
  8
_0-6_JISSEN
  6
CONTINUOUS
 62
    7
 10
296.55020092411985
 20
133.49999915716108
 40
0.6362531454111287
 50
314.98712495038268
 51
45.01287504962653
  0
LINE
  8
_0-6_JISSEN
  6
CONTINUOUS
 62
    7
 10
296.99999872874548
 20
133.94999915716068
 11
296.99999872874548
 21
134.54999915716138
  0
LINE
  8
_0-6_JISSEN
  6
CONTINUOUS
 62
    7
 10
296.99999872874548
 20
132.44999915716269
 11
296.99999872874548
 21
133.0499991571613
  0
LINE
  8
_0-6_JISSEN
  6
CONTINUOUS
 62
    7
 10
296.99999872874548
 20
132.44999915716278
 11
296.99999872874548
 21
133.04999915716138
  0
ARC
  8
_0-6_JISSEN
  6
CONTINUOUS
 62
    7
 10
299.05020092411985
 20
134.99999915716108
 40
0.6362531454111287
 50
314.98712495038268
 51
45.01287504962653
  0
LINE
  8
_0-6_JISSEN
  6
CONTINUOUS
 62
    7
 10
299.49999872873707
 20
134.54999915715308
 11
299.49999872874525
 21
133.94999915716099
  0
LINE
  8
_0-6_JISSEN
  6
CONTINUOUS
 62
    7
 10
299.49999872873053
 20
133.0499991571468
 11
299.49999872874548
 21
132.44999915716289
  0
ARC
  8
_0-6_JISSEN
  6
CONTINUOUS
 62
    7
 10
299.05020092411985
 20
133.49999915716128
 40
0.6362531454111287
 50
314.98712495038268
 51
45.01287504962653
  0
LINE
  8
_0-6_JISSEN
  6
CONTINUOUS
 62
    7
 10
297.39999872874546
 20
130.49999915715318
 11
296.99999872874548
 21
130.99999915716108
  0
LINE
  8
_0-6_JISSEN
  6
CONTINUOUS
 62
    7
 10
298.59999872874516
 20
129.8979138573263
 11
298.09999872874516
 21
129.60923872273148
  0
LINE
  8
_0-5_SAISEN
  6
CONTINUOUS
 62
    4
 10
298.59999872874516
 20
130.49999915715378
 11
298.59999872874516
 21
129.8979138573265
  0
LINE
  8
_0-6_JISSEN
  6
CONTINUOUS
 62
    7
 10
296.99999872874548
 20
130.99999915716108
 11
296.99999872874548
 21
131.54999915716138
  0
LINE
  8
_0-6_JISSEN
  6
CONTINUOUS
 62
    7
 10
299.49999872873536
 20
131.54999915715348
 11
299.49999872874548
 21
130.99999915716148
  0
LINE
  8
_0-6_JISSEN
  6
CONTINUOUS
 62
    7
 10
299.89999872874546
 20
130.49999915715338
 11
299.49999872874548
 21
130.99999915716148
  0
ARC
  8
_0-6_JISSEN
  6
CONTINUOUS
 62
    7
 10
296.55020092412008
 20
131.99999915716307
 40
0.6362531454111287
 50
314.98712495038268
 51
45.01287504962653
  0
ARC
  8
_0-6_JISSEN
  6
CONTINUOUS
 62
    7
 10
299.05020092412008
 20
131.99999915716319
 40
0.6362531454111287
 50
314.98712495038268
 51
45.01287504962653
  0
ARC
  8
_0-6_JISSEN
  6
CONTINUOUS
 62
    7
 10
295.56249872874616
 20
134.99999915715298
 40
0.4874999999996627
 50
292.61986494804597
 51
67.380135051961219
  0
LINE
  8
_0-6_JISSEN
  6
CONTINUOUS
 62
    7
 10
296.99999872874548
 20
133.94999915715249
 11
295.74999872874616
 21
133.94999915715249
  0
LINE
  8
_0-6_JISSEN
  6
CONTINUOUS
 62
    7
 10
295.74999872874616
 20
134.54999915715388
 11
296.99999872874548
 21
134.54999915715368
  0
ARC
  8
_0-6_JISSEN
  6
CONTINUOUS
 62
    7
 10
295.56249872874616
 20
131.99999915715497
 40
0.4874999999996627
 50
292.61986494804597
 51
67.380135051961219
  0
LINE
  8
_0-6_JISSEN
  6
CONTINUOUS
 62
    7
 10
296.24999872874616
 20
130.49999915715318
 11
295.74999872874616
 21
130.99999915715318
  0
LINE
  8
_0-6_JISSEN
  6
CONTINUOUS
 62
    7
 10
296.99999872874548
 20
131.54999915715339
 11
295.74999872874616
 21
131.54999915715328
  0
LINE
  8
_0-6_JISSEN
  6
CONTINUOUS
 62
    7
 10
296.99999872874548
 20
132.44999915715249
 11
295.74999872874616
 21
132.44999915715249
  0
LINE
  8
_0-6_JISSEN
  6
CONTINUOUS
 62
    7
 10
295.74999872874616
 20
130.9999991571533
 11
296.99999872874548
 21
130.9999991571533
  0
LINE
  8
_0-6_JISSEN
  6
CONTINUOUS
 62
    7
 10
295.74999872874616
 20
133.04999915714569
 11
296.99999872874548
 21
133.04999915714609
  0
ARC
  8
_0-6_JISSEN
  6
CONTINUOUS
 62
    7
 10
295.56249872874616
 20
133.4999991571529
 40
0.4874999999996627
 50
292.61986494804597
 51
67.380135051961219
  0
LINE
  8
_0-6_JISSEN
  6
CONTINUOUS
 62
    7
 10
296.99999872874537
 20
135.44999915716059
 11
295.74999872874616
 21
135.44999915716059
  0
LINE
  8
_0-6_JISSEN
  6
CONTINUOUS
 62
    7
 10
298.00591362898825
 20
130.49999915715318
 11
298.00591362898825
 21
136.49999915715318
  0
LINE
  8
_0-6_JISSEN
  6
CONTINUOUS
 62
    7
 10
299.49999872873883
 20
135.9999991571533
 11
299.49999872874525
 21
135.44999915716079
  0
LINE
  8
_0-6_JISSEN
  6
CONTINUOUS
 62
    7
 10
295.74999872874616
 20
135.44999915715249
 11
295.74999872874616
 21
135.99999915715318
  0
LINE
  8
_0-6_JISSEN
  6
CONTINUOUS
 62
    7
 10
296.99999872874537
 20
135.44999915716068
 11
296.99999872874537
 21
135.9999991571612
  0
LINE
  8
_0-6_JISSEN
  6
CONTINUOUS
 62
    7
 10
301.74999872874525
 20
125.89791385732619
 11
301.74999872874525
 21
125.39791385732698
  0
LINE
  8
_0-6_JISSEN
  6
CONTINUOUS
 62
    7
 10
301.99999872874514
 20
122.8979138573265
 11
298.09999872874528
 21
122.89791385732639
  0
LINE
  8
_0-6_JISSEN
  6
CONTINUOUS
 62
    7
 10
297.99999872874457
 20
120.09999915715929
 11
297.99999872874457
 21
117.74999915715799
  0
LINE
  8
_0-6_JISSEN
  6
CONTINUOUS
 62
    7
 10
298.34999872874528
 20
116.8979138573265
 11
298.09999872874528
 21
117.3309265592182
  0
LINE
  8
_0-6_JISSEN
  6
CONTINUOUS
 62
    7
 10
297.49999872874366
 20
117.74999915717299
 11
297.99999872874457
 21
117.74999915717299
  0
ARC
  8
_0-6_JISSEN
  6
CONTINUOUS
 62
    7
 10
297.94999872874513
 20
113.09174957871059
 40
1.5
 50
0.000000000000007
 51
36.869897645837511
  0
LINE
  8
_0-6_JISSEN
  6
CONTINUOUS
 62
    7
 10
299.14999872874523
 20
114.1917495787105
 11
299.14999872874523
 21
113.9917495787104
  0
LINE
  8
_0-6_JISSEN
  6
CONTINUOUS
 62
    7
 10
299.14999872874523
 20
114.1917495787105
 11
299.14999872874523
 21
113.9917495787104
  0
LINE
  8
_0-6_JISSEN
  6
CONTINUOUS
 62
    7
 10
298.09999872874528
 20
117.3309265592182
 11
298.09999872874528
 21
122.8979138573265
  0
LINE
  8
_0-6_JISSEN
  6
CONTINUOUS
 62
    7
 10
295.59999872874494
 20
122.49999915715787
 11
297.99999872874457
 21
120.09999915715929
  0
LINE
  8
_0-6_JISSEN
  6
CONTINUOUS
 62
    7
 10
298.09999872874516
 20
130.49999915715378
 11
298.09999872874516
 21
125.8979138573265
  0
LINE
  8
_0-6_JISSEN
  6
CONTINUOUS
 62
    7
 10
295.59999872874783
 20
137.89999915715379
 11
295.59999872874494
 21
122.4999991571585
  0
LINE
  8
_0-5_SAISEN
  6
CONTINUOUS
 62
    4
 10
302.49611350393837
 20
137.4961139323448
 11
303.78122530318427
 21
139.49999915715338
  0
LINE
  8
_0-6_JISSEN
  6
CONTINUOUS
 62
    7
 10
302.55873804668948
 20
139.4999991571533
 11
323.94125941080046
 21
139.49999915715378
  0
LINE
  8
_0-6_JISSEN
  6
CONTINUOUS
 62
    7
 10
302.49611350393837
 20
137.4961139323448
 11
313.24999872874525
 21
137.49611393234579
  0
LINE
  8
_0-6_JISSEN
  6
CONTINUOUS
 62
    7
 10
310.74999872874463
 20
136.4999991571533
 11
310.74999872874463
 21
130.4999991571533
  0
LINE
  8
_0-6_JISSEN
  6
CONTINUOUS
 62
    7
 10
303.02478035067088
 20
123.11491361271467
 11
302.81624328496338
 21
123.28519848219918
  0
ARC
  8
_0-6_JISSEN
  6
CONTINUOUS
 62
    7
 10
302.24766364622678
 20
124.3979138573265
 40
1.5
 50
270
 51
90
  0
LINE
  8
_0-6_JISSEN
  6
CONTINUOUS
 62
    7
 10
308.17600712304568
 20
116.8979138573265
 11
308.17600712304557
 21
114.1917495787105
  0
LINE
  8
_0-6_JISSEN
  6
CONTINUOUS
 62
    7
 10
306.85999872874538
 20
114.1917495787105
 11
306.85999872874538
 21
116.8979138573265
  0
LINE
  8
_0-6_JISSEN
  6
CONTINUOUS
 62
    7
 10
304.98748091292998
 20
116.8979138573265
 11
304.98748091292998
 21
114.1917495787105
  0
LINE
  8
_0-4_TEXT
  6
CONTINUOUS
 62
    7
 10
311.74999872874525
 20
115.85294667237818
 11
313.24999872874525
 21
115.8529466723781
  0
LINE
  8
_0-6_JISSEN
  6
CONTINUOUS
 62
    7
 10
311.74999872874525
 20
115.3416996745336
 11
311.74999872874525
 21
114.1917495787105
  0
LINE
  8
_0-4_TEXT
  6
CONTINUOUS
 62
    7
 10
311.24999872874525
 20
116.35294667237818
 11
313.24999872874525
 21
116.35294667237818
  0
LINE
  8
_0-6_JISSEN
  6
CONTINUOUS
 62
    7
 10
311.24999872874525
 20
115.8416996745336
 11
311.74999872874525
 21
115.3416996745336
  0
LINE
  8
_0-6_JISSEN
  6
CONTINUOUS
 62
    7
 10
311.24999872874525
 20
115.8416996745336
 11
311.24999872874525
 21
116.8979138573265
  0
LINE
  8
_0-5_SAISEN
  6
CONTINUOUS
 62
    4
 10
311.54999872874538
 20
116.89791385732639
 11
311.54999872874538
 21
115.54169967453359
  0
LINE
  8
_0-6_JISSEN
  6
CONTINUOUS
 62
    7
 10
309.57600712304577
 20
116.8979138573265
 11
309.57600712304577
 21
114.1917495787105
  0
LINE
  8
_0-3_SUNPOU
  6
CONTINUOUS
 62
    7
 10
298.09991529072897
 20
129.8979138573265
 11
313.24999872874525
 21
129.8979138573265
  0
ARC
  8
_0-6_JISSEN
  6
CONTINUOUS
 62
    7
 10
302.49999872874525
 20
122.8979138573269
 40
2.5000000000000089
 50
65.664120666860626
 51
180
  0
LINE
  8
_0-6_JISSEN
  6
CONTINUOUS
 62
    7
 10
298.09999872874516
 20
125.8979138573265
 11
302.24766364622707
 21
125.89791385732619
  0
LINE
  8
_0-4_TEXT
  6
CONTINUOUS
 62
    7
 10
298.09999872874528
 20
117.3309265592182
 11
313.24999872874525
 21
117.3309265592182
  0
LINE
  8
_0-6_JISSEN
  6
CONTINUOUS
 62
    7
 10
313.24999872874525
 20
116.8979138573265
 11
298.34999872874528
 21
116.8979138573265
  0
LINE
  8
_0-6_JISSEN
  6
CONTINUOUS
 62
    7
 10
313.24999872874525
 20
114.1917495787105
 11
299.14999872874523
 21
114.1917495787105
  0
LINE
  8
_0-6_JISSEN
  6
CONTINUOUS
 62
    7
 10
299.14999872874523
 20
113.99174957871048
 11
313.24999872874525
 21
113.99174957871048
  0
LINE
  8
_0-6_JISSEN
  6
CONTINUOUS
 62
    7
 10
313.24999872874525
 20
114.1917495787105
 11
299.14999872874523
 21
114.1917495787105
  0
LINE
  8
_0-6_JISSEN
  6
CONTINUOUS
 62
    7
 10
302.52748648498533
 20
138.4999991571585
 11
294.99999872874548
 21
138.4999991571585
  0
LINE
  8
_0-6_JISSEN
  6
CONTINUOUS
 62
    7
 10
310.74999872874463
 20
132.44999915715269
 11
299.49999872874548
 21
132.44999915715269
  0
LINE
  8
_0-6_JISSEN
  6
CONTINUOUS
 62
    7
 10
310.74999872874463
 20
131.54999915715408
 11
299.49999872874548
 21
131.54999915715348
  0
LINE
  8
_0-6_JISSEN
  6
CONTINUOUS
 62
    7
 10
299.49999872874548
 20
130.99999915715338
 11
310.74999872874463
 21
130.99999915715338
  0
LINE
  8
_0-6_JISSEN
  6
CONTINUOUS
 62
    7
 10
310.74999872874463
 20
133.94999915715269
 11
299.49999872874548
 21
133.94999915715269
  0
LINE
  8
_0-6_JISSEN
  6
CONTINUOUS
 62
    7
 10
299.49999872874548
 20
133.04999915714669
 11
310.74999872874463
 21
133.04999915714939
  0
LINE
  8
_0-6_JISSEN
  6
CONTINUOUS
 62
    7
 10
299.49999872874548
 20
134.54999915715308
 11
310.74999872874463
 21
134.54999915715049
  0
LINE
  8
_0-6_JISSEN
  6
CONTINUOUS
 62
    7
 10
313.24999872874525
 20
130.49999915715338
 11
296.24999872874616
 21
130.49999915715318
  0
LINE
  8
_0-6_JISSEN
  6
CONTINUOUS
 62
    7
 10
299.49999872874548
 20
135.9999991571533
 11
310.74999872874463
 21
135.9999991571533
  0
LINE
  8
_0-6_JISSEN
  6
CONTINUOUS
 62
    7
 10
310.74999872874463
 20
135.44999915716068
 11
299.49999872874548
 21
135.44999915716068
  0
LINE
  8
_0-6_JISSEN
  6
CONTINUOUS
 62
    7
 10
296.24999872874616
 20
136.49999915715318
 11
313.24999872874525
 21
136.49999915715338
  0
ARC
  8
_0-6_JISSEN
  6
CONTINUOUS
 62
    7
 10
302.49999872874525
 20
122.8979138573269
 40
0.5
 50
50.765995579327651
 51
180
  0
LINE
  8
_0-6_JISSEN
  6
CONTINUOUS
 62
    7
 10
302.24766364622678
 20
122.8979138573265
 11
301.96408291812224
 21
122.8979138573265
  0
LINE
  8
_0-6_JISSEN
  6
CONTINUOUS
 62
    7
 10
301.74999872874525
 20
125.39791385732698
 11
303.36569763497647
 21
125.39791385732698
  0
LINE
  8
_0-6_JISSEN
  6
CONTINUOUS
 62
    7
 10
301.49999872874616
 20
136.49999915715239
 11
302.49611350393837
 21
137.4961139323448
  0
LINE
  8
_0-6_JISSEN
  6
CONTINUOUS
 62
    7
 10
302.49611350393837
 20
137.4961139323448
 11
302.68374429350564
 21
143.49999915715298
  0
LINE
  8
_0-5_SAISEN
  6
CONTINUOUS
 62
    4
 10
303.78122530318427
 20
139.49999915715338
 11
303.90623155000054
 21
143.49999915715298
  0
LINE
  8
_0-6_JISSEN
  6
CONTINUOUS
 62
    7
 10
279.24999872874395
 20
110.99634672031539
 11
279.24999872874395
 21
111.4999991571529
  0
LINE
  8
_0-6_JISSEN
  6
CONTINUOUS
 62
    7
 10
282.07953476418828
 20
109.64935323682278
 11
280.07208302645557
 21
110.01230098820798
  0
ARC
  8
_0-6_JISSEN
  6
CONTINUOUS
 62
    7
 10
280.24999872874486
 20
110.99634672031539
 40
1
 50
179.99999999997388
 51
259.75162116555356
  0
ARC
  8
_0-6_JISSEN
  6
CONTINUOUS
 62
    7
 10
293.74999872874736
 20
111.0960758445996
 40
1
 50
259.7516211655801
 51
0.0000000000032187
  0
LINE
  8
_0-6_JISSEN
  6
CONTINUOUS
 62
    7
 10
296.19999872874257
 20
106.49999915715279
 11
296.31698793766907
 21
106.49999915715458
  0
ARC
  8
_0-6_JISSEN
  6
CONTINUOUS
 62
    7
 10
296.31698793766907
 20
106.69999915715459
 40
0.2
 50
270
 51
354.92039214003148
  0
ARC
  8
_0-6_JISSEN
  6
CONTINUOUS
 62
    7
 10
302.05166607689557
 20
107.58881876982849
 40
1.340962879392062
 50
142.9939697501317
 51
166.4699450128802
  0
LINE
  8
_0-6_JISSEN
  6
CONTINUOUS
 62
    7
 10
300.74791849659988
 20
107.9025442721082
 11
300.74791849659988
 21
107.9025442721082
  0
LINE
  8
_0-6_JISSEN
  6
CONTINUOUS
 62
    7
 10
300.74791849659988
 20
107.9025442721082
 11
300.81734136188248
 21
107.69121472442478
  0
LINE
  8
_0-6_JISSEN
  6
CONTINUOUS
 62
    7
 10
300.81734136188248
 20
107.69121472442478
 11
300.90976037972558
 21
107.47287505006703
  0
LINE
  8
_0-6_JISSEN
  6
CONTINUOUS
 62
    7
 10
300.90976037972558
 20
107.47287505006703
 11
300.91184699631566
 21
107.46843573217248
  0
ARC
  8
_0-6_JISSEN
  6
CONTINUOUS
 62
    7
 10
301.05108479642183
 20
108.34297596716848
 40
0.0879999999999999
 50
65.5355231717609
 51
142.99396975011084
  0
ARC
  8
_0-6_JISSEN
  6
CONTINUOUS
 62
    7
 10
299.74999872874525
 20
108.7777773690963
 40
0.2999999999999999
 50
180
 51
207.00000000000179
  0
ARC
  8
_0-6_JISSEN
  6
CONTINUOUS
 62
    7
 10
301.87255888637327
 20
104.39174957871037
 40
0.2
 50
207.00000000000179
 51
270
  0
LINE
  8
_0-6_JISSEN
  6
CONTINUOUS
 62
    7
 10
299.48269677148886
 20
108.6415802191745
 11
301.69435758153554
 21
104.30095147876258
  0
LINE
  8
_0-6_JISSEN
  6
CONTINUOUS
 62
    7
 10
279.24999872874395
 20
111.4999991571529
 11
294.74999872874736
 21
111.4999991571529
  0
LINE
  8
_0-6_JISSEN
  6
CONTINUOUS
 62
    7
 10
293.57208302645847
 20
110.11203011249208
 11
285.89527318266897
 21
111.4999991571529
  0
LINE
  8
_0-6_JISSEN
  6
CONTINUOUS
 62
    7
 10
294.59999872874806
 20
84.499999157094194
 11
293.59999872874243
 21
84.499999157096994
  0
ARC
  8
_0-6_JISSEN
  6
CONTINUOUS
 62
    7
 10
293.59999872874334
 20
85.999999157096084
 40
1.4999999999990901
 50
179.99999999911401
 51
269.99999999984362
  0
LINE
  8
_0-6_JISSEN
  6
CONTINUOUS
 62
    7
 10
296.09999872874243
 20
87.499999157093782
 11
296.09999872874243
 21
85.999999157157887
  0
ARC
  8
_0-6_JISSEN
  6
CONTINUOUS
 62
    7
 10
294.59999872874255
 20
85.999999157157887
 40
1.5
 50
269.99999999984362
 51
0
  0
LINE
  8
_0-6_JISSEN
  6
CONTINUOUS
 62
    7
 10
292.09999872874425
 20
85.999999157096084
 11
292.09999872874425
 21
95.499999157158385
  0
ARC
  8
_0-6_JISSEN
  6
CONTINUOUS
 62
    7
 10
277.09999872874425
 20
95.499999157158385
 40
15
 50
0.000000000000007
 51
70.611666382699582
  0
LINE
  8
_0-6_JISSEN
  6
CONTINUOUS
 62
    7
 10
296.09999872874266
 20
106.49999915715469
 11
296.09999872874243
 21
87.499999157093782
  0
ARC
  8
_0-6_JISSEN
  6
CONTINUOUS
 62
    7
 10
306.70940909276874
 20
107.1821045398259
 40
1.375879154787482
 50
114.4167034614543
 51
165.01444330966612
  0
LINE
  8
_0-6_JISSEN
  6
CONTINUOUS
 62
    7
 10
305.38032215772768
 20
107.53787323951984
 11
305.38032215772768
 21
107.53787323951984
  0
LINE
  8
_0-6_JISSEN
  6
CONTINUOUS
 62
    7
 10
305.38032215772768
 20
107.53787323951984
 11
305.40611343690858
 21
107.30958330374229
  0
LINE
  8
_0-6_JISSEN
  6
CONTINUOUS
 62
    7
 10
305.40611343690858
 20
107.30958330374229
 11
305.46510388653178
 21
107.08491417492858
  0
LINE
  8
_0-6_JISSEN
  6
CONTINUOUS
 62
    7
 10
305.46510388653178
 20
107.08491417492858
 11
305.47245551288643
 21
107.06379007290728
  0
ARC
  8
_0-6_JISSEN
  6
CONTINUOUS
 62
    7
 10
313.24999872874525
 20
107.01362859898148
 40
1.503191537583755
 50
90
 51
176.26571619777661
  0
LINE
  8
_0-2_HATCH
  6
CONTINUOUS
 62
    4
 10
303.99999872874537
 20
101.94174957871058
 11
303.99999872874537
 21
101.79174957871058
  0
LINE
  8
_0-6_JISSEN
  6
CONTINUOUS
 62
    7
 10
303.71735276179487
 20
104.4917495787104
 11
302.70557990194743
 21
104.4917495787104
  0
LINE
  8
_0-6_JISSEN
  6
CONTINUOUS
 62
    7
 10
308.41646568718784
 20
104.4917495787104
 11
306.38757417300627
 21
104.4917495787104
  0
ARC
  8
_0-2_HATCH
  6
CONTINUOUS
 62
    4
 10
305.74999872874537
 20
101.94174957871058
 40
0.2999999999998692
 50
90
 51
180.00000000000321
  0
ARC
  8
_0-2_HATCH
  6
CONTINUOUS
 62
    4
 10
305.24999872874525
 20
97.691749578710585
 40
0.2999999999999999
 50
199.47122063488749
 51
270
  0
LINE
  8
_0-2_HATCH
  6
CONTINUOUS
 62
    4
 10
303.99999872874525
 20
97.591749578710591
 11
303.99999872874525
 21
97.891749578710488
  0
LINE
  8
_0-2_HATCH
  6
CONTINUOUS
 62
    4
 10
303.99999872874525
 20
97.591749578710591
 11
303.99999872874525
 21
97.891749578710488
  0
LINE
  8
_0-2_HATCH
  6
CONTINUOUS
 62
    4
 10
303.99999872874537
 20
99.9417495787105
 11
303.99999872874537
 21
100.09174957871039
  0
ARC
  8
_0-2_HATCH
  6
CONTINUOUS
 62
    4
 10
305.74999872874537
 20
99.9417495787105
 40
0.2999999999998692
 50
180
 51
270
  0
LINE
  8
_0-2_HATCH
  6
CONTINUOUS
 62
    4
 10
311.14999872874546
 20
104.19174957871058
 11
311.14999872874546
 21
102.24174957871048
  0
ARC
  8
_0-2_HATCH
  6
CONTINUOUS
 62
    4
 10
310.04999872874544
 20
101.59174957871059
 40
0.2
 50
0.000000000000007
 51
90.000000000000014
  0
LINE
  8
_0-2_HATCH
  6
CONTINUOUS
 62
    4
 10
310.24999872874537
 20
101.59174957871059
 11
310.24999872874537
 21
101.29174957871049
  0
LINE
  8
_0-6_JISSEN
  6
CONTINUOUS
 62
    7
 10
313.24999872874525
 20
104.4917495787104
 11
311.74999872874537
 21
104.4917495787104
  0
LINE
  8
_0-2_HATCH
  6
CONTINUOUS
 62
    4
 10
310.24999872874537
 20
100.29174957871049
 11
310.24999872874537
 21
100.59174957871039
  0
ARC
  8
_0-2_HATCH
  6
CONTINUOUS
 62
    4
 10
310.04999872874544
 20
100.29174957871049
 40
0.2
 50
270
 51
0
  0
LINE
  8
_0-2_HATCH
  6
CONTINUOUS
 62
    4
 10
310.44999872874536
 20
98.091749578710676
 11
310.44999872874536
 21
97.991749578710397
  0
LINE
  8
_0-2_HATCH
  6
CONTINUOUS
 62
    4
 10
311.14999872874546
 20
99.641749578710488
 11
311.14999872874546
 21
98.391749578710488
  0
ARC
  8
_0-2_HATCH
  6
CONTINUOUS
 62
    4
 10
310.34999872874528
 20
97.991749578710397
 40
0.1
 50
270
 51
0
  0
ARC
  8
_0-2_HATCH
  6
CONTINUOUS
 62
    4
 10
310.74999872874537
 20
98.091749578710591
 40
0.2999999999999999
 50
90
 51
179.99999999998366
  0
ARC
  8
_0-2_HATCH
  6
CONTINUOUS
 62
    4
 10
310.59999872874545
 20
100.59174957871039
 40
0.3499999999999999
 50
90
 51
180
  0
LINE
  8
_0-2_HATCH
  6
CONTINUOUS
 62
    4
 10
313.24999872874525
 20
100.9417495787105
 11
310.59999872874545
 21
100.9417495787105
  0
LINE
  8
_0-2_HATCH
  6
CONTINUOUS
 62
    4
 10
310.74999872874525
 20
98.391749578710488
 11
313.24999872874525
 21
98.391749578710488
  0
ARC
  8
_0-2_HATCH
  6
CONTINUOUS
 62
    4
 10
310.59999872874545
 20
101.29174957871049
 40
0.3499999999999999
 50
180
 51
270
  0
LINE
  8
_0-2_HATCH
  6
CONTINUOUS
 62
    4
 10
313.24999872874525
 20
101.9417495787105
 11
303.99999872874537
 21
101.9417495787105
  0
LINE
  8
_0-2_HATCH
  6
CONTINUOUS
 62
    4
 10
313.24999872874525
 20
102.24174957871048
 11
305.74999872874537
 21
102.24174957871048
  0
LINE
  8
_0-2_HATCH
  6
CONTINUOUS
 62
    4
 10
313.24999872874525
 20
101.79174957871049
 11
303.99999872874537
 21
101.79174957871058
  0
LINE
  8
_0-2_HATCH
  6
CONTINUOUS
 62
    4
 10
313.24999872874525
 20
97.391749578710488
 11
305.24999872874525
 21
97.391749578710488
  0
LINE
  8
_0-2_HATCH
  6
CONTINUOUS
 62
    4
 10
313.24999872874525
 20
97.591749578710591
 11
303.99999872874525
 21
97.591749578710591
  0
LINE
  8
_0-2_HATCH
  6
CONTINUOUS
 62
    4
 10
303.99999872874525
 20
97.891749578710488
 11
313.24999872874525
 21
97.891749578710488
  0
LINE
  8
_0-2_HATCH
  6
CONTINUOUS
 62
    4
 10
313.24999872874525
 20
99.641749578710488
 11
305.74999872874537
 21
99.641749578710488
  0
LINE
  8
_0-2_HATCH
  6
CONTINUOUS
 62
    4
 10
313.24999872874525
 20
99.941749578710585
 11
303.99999872874537
 21
99.941749578710585
  0
LINE
  8
_0-2_HATCH
  6
CONTINUOUS
 62
    4
 10
313.24999872874525
 20
100.09174957871039
 11
303.99999872874537
 21
100.09174957871039
  0
LINE
  8
_0-6_JISSEN
  6
CONTINUOUS
 62
    7
 10
308.41646568718778
 20
104.4917495787104
 11
307.27339954210356
 21
107.7044612639001
  0
LINE
  8
_0-6_JISSEN
  6
CONTINUOUS
 62
    7
 10
311.74999872874537
 20
104.4917495787104
 11
311.74999872874537
 21
107.11153058396539
  0
LINE
  8
_0-6_JISSEN
  6
CONTINUOUS
 62
    7
 10
306.38757417300627
 20
104.4917495787104
 11
305.47245551290018
 21
107.0637900728685
  0
ARC
  8
_0-6_JISSEN
  6
CONTINUOUS
 62
    7
 10
311.74999872874486
 20
85.99999915709509
 40
1.4999999999990901
 50
0.000000000000007
 51
90.000000000000014
  0
LINE
  8
_0-6_JISSEN
  6
CONTINUOUS
 62
    7
 10
311.74999872874486
 20
97.391749578710488
 11
311.74999872874383
 21
87.499999157094194
  0
LINE
  8
_0-6_JISSEN
  6
CONTINUOUS
 62
    7
 10
311.74999872874486
 20
87.499999157094194
 11
296.09999872874243
 21
87.499999157094194
  0
LINE
  8
_0-6_JISSEN
  6
CONTINUOUS
 62
    7
 10
313.24999872874508
 20
84.499999157157887
 11
293.59999872874334
 21
84.499999157157887
  0
LINE
  8
_0-6_JISSEN
  6
CONTINUOUS
 62
    7
 10
313.24999872874537
 20
104.1917495787105
 11
301.87255888637327
 21
104.1917495787105
  0
LINE
  8
_0-6_JISSEN
  6
CONTINUOUS
 62
    7
 10
303.71735276179487
 20
104.4917495787104
 11
301.67670899273037
 21
107.87818243749939
  0
LINE
  8
_0-6_JISSEN
  6
CONTINUOUS
 62
    7
 10
302.70557990194737
 20
104.4917495787104
 11
300.91184699631577
 21
107.46843573217248
  0
LINE
  8
_0-6_JISSEN
  6
CONTINUOUS
 62
    7
 10
299.45240344600268
 20
108.7398689572413
 11
313.24999872874525
 21
108.7398689572413
  0
LINE
  8
_0-6_JISSEN
  6
CONTINUOUS
 62
    7
 10
296.51620246580836
 20
106.68229119909788
 11
297.49999872874366
 21
117.74999915717299
  0
LINE
  8
_0-6_JISSEN
  6
CONTINUOUS
 62
    7
 10
294.74999872874736
 20
111.0960758445996
 11
294.74999872874548
 21
138.2499991571585
  0
LINE
  8
_0-6_JISSEN
  6
CONTINUOUS
 62
    7
 10
299.44999872874547
 20
113.09174957871059
 11
299.44999872874547
 21
108.7777773690963
  0
LINE
  8
_0-6_JISSEN
  6
CONTINUOUS
 62
    7
 10
327.04999872874458
 20
113.09174957871059
 11
327.04999872874458
 21
108.7777773690963
  0
LINE
  8
_0-6_JISSEN
  6
CONTINUOUS
 62
    7
 10
331.74999872874258
 20
111.0960758445996
 11
331.74999872874434
 21
138.2499991571585
  0
LINE
  8
_0-6_JISSEN
  6
CONTINUOUS
 62
    7
 10
329.98379499168158
 20
106.68229119909788
 11
328.99999872874616
 21
117.74999915717299
  0
LINE
  8
_0-6_JISSEN
  6
CONTINUOUS
 62
    7
 10
327.04759401148715
 20
108.7398689572413
 11
313.24999872874463
 21
108.7398689572413
  0
LINE
  8
_0-6_JISSEN
  6
CONTINUOUS
 62
    7
 10
323.79441755554257
 20
104.4917495787104
 11
325.58815046117417
 21
107.46843573217248
  0
LINE
  8
_0-6_JISSEN
  6
CONTINUOUS
 62
    7
 10
322.78264469569507
 20
104.4917495787104
 11
324.82328846475957
 21
107.87818243749939
  0
LINE
  8
_0-6_JISSEN
  6
CONTINUOUS
 62
    7
 10
313.24999872874446
 20
104.1917495787105
 11
324.62743857111667
 21
104.1917495787105
  0
LINE
  8
_0-6_JISSEN
  6
CONTINUOUS
 62
    7
 10
313.24999872874508
 20
84.499999157157887
 11
332.89999872874654
 21
84.499999157157887
  0
LINE
  8
_0-6_JISSEN
  6
CONTINUOUS
 62
    7
 10
314.74999872874508
 20
87.499999157094194
 11
330.39999872874745
 21
87.499999157094194
  0
LINE
  8
_0-6_JISSEN
  6
CONTINUOUS
 62
    7
 10
314.74999872874508
 20
97.391749578710488
 11
314.74999872874594
 21
87.499999157094194
  0
ARC
  8
_0-6_JISSEN
  6
CONTINUOUS
 62
    7
 10
314.74999872874508
 20
85.99999915709509
 40
1.4999999999990901
 50
90
 51
180
  0
LINE
  8
_0-6_JISSEN
  6
CONTINUOUS
 62
    7
 10
320.11242328448367
 20
104.4917495787104
 11
321.02754194458964
 21
107.0637900728685
  0
LINE
  8
_0-6_JISSEN
  6
CONTINUOUS
 62
    7
 10
314.74999872874446
 20
104.4917495787104
 11
314.74999872874446
 21
107.11153058396539
  0
LINE
  8
_0-6_JISSEN
  6
CONTINUOUS
 62
    7
 10
318.08353177030216
 20
104.4917495787104
 11
319.22659791538626
 21
107.7044612639001
  0
LINE
  8
_0-2_HATCH
  6
CONTINUOUS
 62
    4
 10
313.24999872874463
 20
100.09174957871039
 11
322.49999872874446
 21
100.09174957871039
  0
LINE
  8
_0-2_HATCH
  6
CONTINUOUS
 62
    4
 10
313.24999872874463
 20
99.941749578710585
 11
322.49999872874446
 21
99.941749578710585
  0
LINE
  8
_0-2_HATCH
  6
CONTINUOUS
 62
    4
 10
313.24999872874463
 20
99.641749578710488
 11
320.74999872874446
 21
99.641749578710488
  0
LINE
  8
_0-2_HATCH
  6
CONTINUOUS
 62
    4
 10
322.49999872874457
 20
97.891749578710488
 11
313.24999872874463
 21
97.891749578710488
  0
LINE
  8
_0-2_HATCH
  6
CONTINUOUS
 62
    4
 10
313.24999872874463
 20
97.591749578710591
 11
322.49999872874457
 21
97.591749578710591
  0
LINE
  8
_0-2_HATCH
  6
CONTINUOUS
 62
    4
 10
313.24999872874463
 20
97.391749578710488
 11
321.24999872874457
 21
97.391749578710488
  0
LINE
  8
_0-2_HATCH
  6
CONTINUOUS
 62
    4
 10
313.24999872874463
 20
101.79174957871049
 11
322.49999872874446
 21
101.79174957871058
  0
LINE
  8
_0-2_HATCH
  6
CONTINUOUS
 62
    4
 10
313.24999872874463
 20
102.24174957871048
 11
320.74999872874446
 21
102.24174957871048
  0
LINE
  8
_0-2_HATCH
  6
CONTINUOUS
 62
    4
 10
313.24999872874463
 20
101.9417495787105
 11
322.49999872874446
 21
101.9417495787105
  0
ARC
  8
_0-2_HATCH
  6
CONTINUOUS
 62
    4
 10
315.89999872874455
 20
101.29174957871049
 40
0.3499999999999999
 50
270
 51
0
  0
LINE
  8
_0-2_HATCH
  6
CONTINUOUS
 62
    4
 10
315.74999872874457
 20
98.391749578710488
 11
313.24999872874463
 21
98.391749578710488
  0
LINE
  8
_0-2_HATCH
  6
CONTINUOUS
 62
    4
 10
313.24999872874463
 20
100.9417495787105
 11
315.89999872874455
 21
100.9417495787105
  0
ARC
  8
_0-2_HATCH
  6
CONTINUOUS
 62
    4
 10
315.89999872874455
 20
100.59174957871039
 40
0.3499999999999999
 50
0
 51
90
  0
ARC
  8
_0-2_HATCH
  6
CONTINUOUS
 62
    4
 10
315.74999872874446
 20
98.091749578710591
 40
0.2999999999999999
 50
0.0000000000162844
 51
90
  0
ARC
  8
_0-2_HATCH
  6
CONTINUOUS
 62
    4
 10
316.14999872874455
 20
97.991749578710397
 40
0.1
 50
180
 51
270
  0
LINE
  8
_0-2_HATCH
  6
CONTINUOUS
 62
    4
 10
315.34999872874437
 20
99.641749578710488
 11
315.34999872874437
 21
98.391749578710488
  0
LINE
  8
_0-2_HATCH
  6
CONTINUOUS
 62
    4
 10
316.04999872874458
 20
98.091749578710676
 11
316.04999872874458
 21
97.991749578710397
  0
ARC
  8
_0-2_HATCH
  6
CONTINUOUS
 62
    4
 10
316.44999872874433
 20
100.29174957871049
 40
0.2
 50
180
 51
270
  0
LINE
  8
_0-2_HATCH
  6
CONTINUOUS
 62
    4
 10
316.24999872874446
 20
100.29174957871049
 11
316.24999872874446
 21
100.59174957871039
  0
LINE
  8
_0-6_JISSEN
  6
CONTINUOUS
 62
    7
 10
313.24999872874463
 20
104.4917495787104
 11
314.74999872874446
 21
104.4917495787104
  0
LINE
  8
_0-2_HATCH
  6
CONTINUOUS
 62
    4
 10
316.24999872874446
 20
101.59174957871059
 11
316.24999872874446
 21
101.29174957871049
  0
ARC
  8
_0-2_HATCH
  6
CONTINUOUS
 62
    4
 10
316.44999872874433
 20
101.59174957871059
 40
0.2
 50
90
 51
180
  0
LINE
  8
_0-2_HATCH
  6
CONTINUOUS
 62
    4
 10
315.34999872874437
 20
104.19174957871058
 11
315.34999872874437
 21
102.24174957871048
  0
ARC
  8
_0-2_HATCH
  6
CONTINUOUS
 62
    4
 10
320.74999872874446
 20
99.9417495787105
 40
0.2999999999998692
 50
270
 51
0
  0
LINE
  8
_0-2_HATCH
  6
CONTINUOUS
 62
    4
 10
322.49999872874446
 20
99.9417495787105
 11
322.49999872874446
 21
100.09174957871039
  0
LINE
  8
_0-2_HATCH
  6
CONTINUOUS
 62
    4
 10
322.49999872874457
 20
97.591749578710591
 11
322.49999872874457
 21
97.891749578710488
  0
LINE
  8
_0-2_HATCH
  6
CONTINUOUS
 62
    4
 10
322.49999872874457
 20
97.591749578710591
 11
322.49999872874457
 21
97.891749578710488
  0
ARC
  8
_0-2_HATCH
  6
CONTINUOUS
 62
    4
 10
321.24999872874457
 20
97.691749578710585
 40
0.2999999999999999
 50
270
 51
340.52877936511243
  0
ARC
  8
_0-2_HATCH
  6
CONTINUOUS
 62
    4
 10
320.74999872874446
 20
101.94174957871058
 40
0.2999999999998692
 50
359.99999999999676
 51
90.000000000000043
  0
LINE
  8
_0-6_JISSEN
  6
CONTINUOUS
 62
    7
 10
318.08353177030193
 20
104.4917495787104
 11
320.11242328448367
 21
104.4917495787104
  0
LINE
  8
_0-6_JISSEN
  6
CONTINUOUS
 62
    7
 10
322.78264469569507
 20
104.4917495787104
 11
323.79441755554234
 21
104.4917495787104
  0
LINE
  8
_0-2_HATCH
  6
CONTINUOUS
 62
    4
 10
322.49999872874446
 20
101.94174957871058
 11
322.49999872874446
 21
101.79174957871058
  0
ARC
  8
_0-6_JISSEN
  6
CONTINUOUS
 62
    7
 10
313.24999872874463
 20
107.01362859898148
 40
1.503191537583755
 50
3.734283802223318
 51
90
  0
LINE
  8
_0-6_JISSEN
  6
CONTINUOUS
 62
    7
 10
319.20322335559382
 20
108.21991420880417
 11
319.20322335559382
 21
108.21991420880417
  0
LINE
  8
_0-6_JISSEN
  6
CONTINUOUS
 62
    7
 10
319.20322335559382
 20
108.21991420880417
 11
319.07899168792358
 21
108.0266579602455
  0
LINE
  8
_0-6_JISSEN
  6
CONTINUOUS
 62
    7
 10
319.07899168792358
 20
108.0266579602455
 11
318.98278233375407
 21
107.81523456807014
  0
LINE
  8
_0-6_JISSEN
  6
CONTINUOUS
 62
    7
 10
318.98278233375407
 20
107.81523456807014
 11
318.9751357212017
 21
107.7942154478997
  0
ARC
  8
_0-6_JISSEN
  6
CONTINUOUS
 62
    7
 10
319.79058836472103
 20
107.1821045398259
 40
1.375879154787482
 50
14.98555669033386
 51
65.583296538545611
  0
LINE
  8
_0-6_JISSEN
  6
CONTINUOUS
 62
    7
 10
330.39999872874716
 20
106.49999915715469
 11
330.39999872874745
 21
87.499999157093782
  0
ARC
  8
_0-6_JISSEN
  6
CONTINUOUS
 62
    7
 10
349.39999872874563
 20
95.499999157158385
 40
15
 50
109.3883336173004
 51
180
  0
LINE
  8
_0-6_JISSEN
  6
CONTINUOUS
 62
    7
 10
334.39999872874546
 20
85.999999157096084
 11
334.39999872874546
 21
95.499999157158385
  0
ARC
  8
_0-6_JISSEN
  6
CONTINUOUS
 62
    7
 10
331.89999872874745
 20
85.999999157157887
 40
1.5
 50
180
 51
270.00000000015632
  0
LINE
  8
_0-6_JISSEN
  6
CONTINUOUS
 62
    7
 10
330.39999872874745
 20
87.499999157093782
 11
330.39999872874745
 21
85.999999157157887
  0
ARC
  8
_0-6_JISSEN
  6
CONTINUOUS
 62
    7
 10
332.89999872874654
 20
85.999999157096084
 40
1.4999999999990901
 50
270.00000000015632
 51
0.0000000008858608
  0
LINE
  8
_0-6_JISSEN
  6
CONTINUOUS
 62
    7
 10
331.89999872874193
 20
84.499999157094194
 11
332.89999872874733
 21
84.499999157096994
  0
LINE
  8
_0-6_JISSEN
  6
CONTINUOUS
 62
    7
 10
332.92791443103135
 20
110.11203011249208
 11
340.60472427482097
 21
111.4999991571529
  0
LINE
  8
_0-6_JISSEN
  6
CONTINUOUS
 62
    7
 10
347.24999872874594
 20
111.4999991571529
 11
340.60472427482097
 21
111.4999991571529
  0
LINE
  8
_0-6_JISSEN
  6
CONTINUOUS
 62
    7
 10
327.01730068600108
 20
108.6415802191745
 11
324.80563987595434
 21
104.30095147876258
  0
ARC
  8
_0-6_JISSEN
  6
CONTINUOUS
 62
    7
 10
324.62743857111667
 20
104.39174957871037
 40
0.2
 50
270
 51
332.99999999999818
  0
ARC
  8
_0-6_JISSEN
  6
CONTINUOUS
 62
    7
 10
326.74999872874457
 20
108.7777773690963
 40
0.2999999999999999
 50
332.99999999999818
 51
0
  0
ARC
  8
_0-6_JISSEN
  6
CONTINUOUS
 62
    7
 10
325.44891266106794
 20
108.34297596716848
 40
0.0879999999999999
 50
37.006030249889079
 51
114.4644768282391
  0
LINE
  8
_0-6_JISSEN
  6
CONTINUOUS
 62
    7
 10
324.93059762262101
 20
108.39756391202017
 11
324.93059762262101
 21
108.39756391202017
  0
LINE
  8
_0-6_JISSEN
  6
CONTINUOUS
 62
    7
 10
324.93059762262101
 20
108.39756391202017
 11
324.77618876123711
 21
108.23744640681147
  0
LINE
  8
_0-6_JISSEN
  6
CONTINUOUS
 62
    7
 10
324.77618876123711
 20
108.23744640681147
 11
324.62632629855295
 21
108.05372180166567
  0
LINE
  8
_0-6_JISSEN
  6
CONTINUOUS
 62
    7
 10
324.62632629855295
 20
108.05372180166567
 11
324.62337623702467
 21
108.04980279042024
  0
ARC
  8
_0-6_JISSEN
  6
CONTINUOUS
 62
    7
 10
324.44833138059414
 20
107.58881876982849
 40
1.340962879392062
 50
13.530054987119808
 51
37.006030249868218
  0
ARC
  8
_0-6_JISSEN
  6
CONTINUOUS
 62
    7
 10
330.18300951982076
 20
106.69999915715459
 40
0.2
 50
185.07960785996832
 51
270
  0
LINE
  8
_0-6_JISSEN
  6
CONTINUOUS
 62
    7
 10
330.29999872874714
 20
106.49999915715279
 11
330.18300951982076
 21
106.49999915715458
  0
ARC
  8
_0-6_JISSEN
  6
CONTINUOUS
 62
    7
 10
332.74999872874258
 20
111.0960758445996
 40
1
 50
179.99999999999659
 51
280.24837883441978
  0
ARC
  8
_0-6_JISSEN
  6
CONTINUOUS
 62
    7
 10
346.24999872874497
 20
110.99634672031539
 40
1
 50
280.24837883444633
 51
0.0000000000260296
  0
LINE
  8
_0-6_JISSEN
  6
CONTINUOUS
 62
    7
 10
344.42046269330166
 20
109.64935323682278
 11
346.42791443103414
 21
110.01230098820798
  0
LINE
  8
_0-6_JISSEN
  6
CONTINUOUS
 62
    7
 10
347.24999872874594
 20
110.99634672031539
 11
347.24999872874594
 21
111.4999991571529
  0
LINE
  8
_0-5_SAISEN
  6
CONTINUOUS
 62
    4
 10
322.71877215430555
 20
139.49999915715338
 11
322.59376590748923
 21
143.49999915715298
  0
LINE
  8
_0-6_JISSEN
  6
CONTINUOUS
 62
    7
 10
324.00388395355156
 20
137.4961139323448
 11
323.81625316398413
 21
143.49999915715298
  0
LINE
  8
_0-6_JISSEN
  6
CONTINUOUS
 62
    7
 10
324.99999872874366
 20
136.49999915715239
 11
324.00388395355156
 21
137.4961139323448
  0
LINE
  8
_0-6_JISSEN
  6
CONTINUOUS
 62
    7
 10
324.74999872874457
 20
125.39791385732698
 11
323.13429982251358
 21
125.39791385732698
  0
LINE
  8
_0-6_JISSEN
  6
CONTINUOUS
 62
    7
 10
324.25233381126304
 20
122.8979138573265
 11
324.53591453936758
 21
122.8979138573265
  0
ARC
  8
_0-6_JISSEN
  6
CONTINUOUS
 62
    7
 10
323.99999872874457
 20
122.8979138573269
 40
0.5
 50
0
 51
129.23400442067231
  0
LINE
  8
_0-6_JISSEN
  6
CONTINUOUS
 62
    7
 10
330.24999872874366
 20
136.49999915715318
 11
313.24999872874463
 21
136.49999915715338
  0
LINE
  8
_0-6_JISSEN
  6
CONTINUOUS
 62
    7
 10
315.74999872874508
 20
135.44999915716068
 11
326.99999872874434
 21
135.44999915716068
  0
LINE
  8
_0-6_JISSEN
  6
CONTINUOUS
 62
    7
 10
326.99999872874434
 20
135.9999991571533
 11
315.74999872874508
 21
135.9999991571533
  0
LINE
  8
_0-6_JISSEN
  6
CONTINUOUS
 62
    7
 10
313.24999872874463
 20
130.49999915715338
 11
330.24999872874366
 21
130.49999915715318
  0
LINE
  8
_0-6_JISSEN
  6
CONTINUOUS
 62
    7
 10
326.99999872874434
 20
134.54999915715308
 11
315.74999872874508
 21
134.54999915715049
  0
LINE
  8
_0-6_JISSEN
  6
CONTINUOUS
 62
    7
 10
326.99999872874434
 20
133.04999915714669
 11
315.74999872874508
 21
133.04999915714939
  0
LINE
  8
_0-6_JISSEN
  6
CONTINUOUS
 62
    7
 10
315.74999872874508
 20
133.94999915715269
 11
326.99999872874434
 21
133.94999915715269
  0
LINE
  8
_0-6_JISSEN
  6
CONTINUOUS
 62
    7
 10
326.99999872874434
 20
130.99999915715338
 11
315.74999872874508
 21
130.99999915715338
  0
LINE
  8
_0-6_JISSEN
  6
CONTINUOUS
 62
    7
 10
315.74999872874508
 20
131.54999915715408
 11
326.99999872874434
 21
131.54999915715348
  0
LINE
  8
_0-6_JISSEN
  6
CONTINUOUS
 62
    7
 10
315.74999872874508
 20
132.44999915715269
 11
326.99999872874434
 21
132.44999915715269
  0
LINE
  8
_0-6_JISSEN
  6
CONTINUOUS
 62
    7
 10
323.97251097250444
 20
138.4999991571585
 11
331.49999872874434
 21
138.4999991571585
  0
LINE
  8
_0-6_JISSEN
  6
CONTINUOUS
 62
    7
 10
313.24999872874463
 20
114.1917495787105
 11
327.34999872874465
 21
114.1917495787105
  0
LINE
  8
_0-6_JISSEN
  6
CONTINUOUS
 62
    7
 10
327.34999872874465
 20
113.99174957871048
 11
313.24999872874463
 21
113.99174957871048
  0
LINE
  8
_0-6_JISSEN
  6
CONTINUOUS
 62
    7
 10
313.24999872874463
 20
114.1917495787105
 11
327.34999872874465
 21
114.1917495787105
  0
LINE
  8
_0-6_JISSEN
  6
CONTINUOUS
 62
    7
 10
313.24999872874463
 20
116.8979138573265
 11
328.14999872874455
 21
116.8979138573265
  0
LINE
  8
_0-4_TEXT
  6
CONTINUOUS
 62
    7
 10
328.39999872874455
 20
117.3309265592182
 11
313.24999872874463
 21
117.3309265592182
  0
LINE
  8
_0-6_JISSEN
  6
CONTINUOUS
 62
    7
 10
328.39999872874478
 20
125.8979138573265
 11
324.25233381126304
 21
125.89791385732619
  0
ARC
  8
_0-6_JISSEN
  6
CONTINUOUS
 62
    7
 10
323.99999872874457
 20
122.8979138573269
 40
2.5000000000000089
 50
0
 51
114.33587933313939
  0
LINE
  8
_0-3_SUNPOU
  6
CONTINUOUS
 62
    7
 10
328.40008216676085
 20
129.8979138573265
 11
313.24999872874463
 21
129.8979138573265
  0
LINE
  8
_0-6_JISSEN
  6
CONTINUOUS
 62
    7
 10
316.92399033444417
 20
116.8979138573265
 11
316.92399033444417
 21
114.1917495787105
  0
LINE
  8
_0-5_SAISEN
  6
CONTINUOUS
 62
    4
 10
314.94999872874456
 20
116.89791385732639
 11
314.94999872874456
 21
115.54169967453359
  0
LINE
  8
_0-6_JISSEN
  6
CONTINUOUS
 62
    7
 10
315.24999872874457
 20
115.8416996745336
 11
315.24999872874457
 21
116.8979138573265
  0
LINE
  8
_0-6_JISSEN
  6
CONTINUOUS
 62
    7
 10
315.24999872874457
 20
115.8416996745336
 11
314.74999872874457
 21
115.3416996745336
  0
LINE
  8
_0-4_TEXT
  6
CONTINUOUS
 62
    7
 10
315.24999872874457
 20
116.35294667237818
 11
313.24999872874463
 21
116.35294667237818
  0
LINE
  8
_0-6_JISSEN
  6
CONTINUOUS
 62
    7
 10
314.74999872874457
 20
115.3416996745336
 11
314.74999872874457
 21
114.1917495787105
  0
LINE
  8
_0-4_TEXT
  6
CONTINUOUS
 62
    7
 10
314.74999872874457
 20
115.85294667237818
 11
313.24999872874463
 21
115.8529466723781
  0
LINE
  8
_0-6_JISSEN
  6
CONTINUOUS
 62
    7
 10
321.51251654455984
 20
116.8979138573265
 11
321.51251654455984
 21
114.1917495787105
  0
LINE
  8
_0-6_JISSEN
  6
CONTINUOUS
 62
    7
 10
319.63999872874444
 20
114.1917495787105
 11
319.63999872874444
 21
116.8979138573265
  0
LINE
  8
_0-6_JISSEN
  6
CONTINUOUS
 62
    7
 10
318.32399033444415
 20
116.8979138573265
 11
318.32399033444426
 21
114.1917495787105
  0
ARC
  8
_0-6_JISSEN
  6
CONTINUOUS
 62
    7
 10
324.25233381126304
 20
124.3979138573265
 40
1.5
 50
90
 51
270
  0
LINE
  8
_0-6_JISSEN
  6
CONTINUOUS
 62
    7
 10
323.47521710681895
 20
123.11491361271467
 11
323.68375417252645
 21
123.28519848219918
  0
LINE
  8
_0-6_JISSEN
  6
CONTINUOUS
 62
    7
 10
315.74999872874508
 20
136.4999991571533
 11
315.74999872874508
 21
130.4999991571533
  0
LINE
  8
_0-6_JISSEN
  6
CONTINUOUS
 62
    7
 10
324.00388395355156
 20
137.4961139323448
 11
313.24999872874463
 21
137.49611393234579
  0
LINE
  8
_0-5_SAISEN
  6
CONTINUOUS
 62
    4
 10
324.00388395355156
 20
137.4961139323448
 11
322.71877215430555
 21
139.49999915715338
  0
LINE
  8
_0-6_JISSEN
  6
CONTINUOUS
 62
    7
 10
330.89999872874193
 20
137.89999915715379
 11
330.89999872874483
 21
122.4999991571585
  0
LINE
  8
_0-6_JISSEN
  6
CONTINUOUS
 62
    7
 10
328.39999872874478
 20
130.49999915715378
 11
328.39999872874478
 21
125.8979138573265
  0
LINE
  8
_0-6_JISSEN
  6
CONTINUOUS
 62
    7
 10
330.89999872874483
 20
122.49999915715787
 11
328.49999872874525
 21
120.09999915715929
  0
LINE
  8
_0-6_JISSEN
  6
CONTINUOUS
 62
    7
 10
328.39999872874455
 20
117.3309265592182
 11
328.39999872874455
 21
122.8979138573265
  0
LINE
  8
_0-6_JISSEN
  6
CONTINUOUS
 62
    7
 10
327.34999872874465
 20
114.1917495787105
 11
327.34999872874465
 21
113.9917495787104
  0
LINE
  8
_0-6_JISSEN
  6
CONTINUOUS
 62
    7
 10
327.34999872874465
 20
114.1917495787105
 11
327.34999872874465
 21
113.9917495787104
  0
ARC
  8
_0-6_JISSEN
  6
CONTINUOUS
 62
    7
 10
328.54999872874464
 20
113.09174957871059
 40
1.5
 50
143.13010235416243
 51
180.00000000000003
  0
LINE
  8
_0-6_JISSEN
  6
CONTINUOUS
 62
    7
 10
328.99999872874616
 20
117.74999915717299
 11
328.49999872874525
 21
117.74999915717299
  0
LINE
  8
_0-6_JISSEN
  6
CONTINUOUS
 62
    7
 10
328.14999872874455
 20
116.8979138573265
 11
328.39999872874455
 21
117.3309265592182
  0
LINE
  8
_0-6_JISSEN
  6
CONTINUOUS
 62
    7
 10
328.49999872874525
 20
120.09999915715929
 11
328.49999872874525
 21
117.74999915715799
  0
LINE
  8
_0-6_JISSEN
  6
CONTINUOUS
 62
    7
 10
324.49999872874463
 20
122.8979138573265
 11
328.39999872874455
 21
122.89791385732639
  0
LINE
  8
_0-6_JISSEN
  6
CONTINUOUS
 62
    7
 10
324.74999872874457
 20
125.89791385732619
 11
324.74999872874457
 21
125.39791385732698
  0
LINE
  8
_0-6_JISSEN
  6
CONTINUOUS
 62
    7
 10
329.49999872874446
 20
135.44999915716068
 11
329.49999872874446
 21
135.9999991571612
  0
LINE
  8
_0-6_JISSEN
  6
CONTINUOUS
 62
    7
 10
330.74999872874366
 20
135.44999915715249
 11
330.74999872874366
 21
135.99999915715318
  0
LINE
  8
_0-6_JISSEN
  6
CONTINUOUS
 62
    7
 10
326.99999872875094
 20
135.9999991571533
 11
326.99999872874457
 21
135.44999915716079
  0
LINE
  8
_0-6_JISSEN
  6
CONTINUOUS
 62
    7
 10
328.49408382850163
 20
130.49999915715318
 11
328.49408382850163
 21
136.49999915715318
  0
LINE
  8
_0-6_JISSEN
  6
CONTINUOUS
 62
    7
 10
329.49999872874446
 20
135.44999915716059
 11
330.74999872874366
 21
135.44999915716059
  0
ARC
  8
_0-6_JISSEN
  6
CONTINUOUS
 62
    7
 10
330.93749872874366
 20
133.4999991571529
 40
0.4874999999996627
 50
112.6198649480387
 51
247.38013505195391
  0
LINE
  8
_0-6_JISSEN
  6
CONTINUOUS
 62
    7
 10
330.74999872874366
 20
133.04999915714569
 11
329.49999872874434
 21
133.04999915714609
  0
LINE
  8
_0-6_JISSEN
  6
CONTINUOUS
 62
    7
 10
330.74999872874366
 20
130.9999991571533
 11
329.49999872874434
 21
130.9999991571533
  0
LINE
  8
_0-6_JISSEN
  6
CONTINUOUS
 62
    7
 10
329.49999872874434
 20
132.44999915715249
 11
330.74999872874366
 21
132.44999915715249
  0
LINE
  8
_0-6_JISSEN
  6
CONTINUOUS
 62
    7
 10
329.49999872874434
 20
131.54999915715339
 11
330.74999872874366
 21
131.54999915715328
  0
LINE
  8
_0-6_JISSEN
  6
CONTINUOUS
 62
    7
 10
330.24999872874366
 20
130.49999915715318
 11
330.74999872874366
 21
130.99999915715318
  0
ARC
  8
_0-6_JISSEN
  6
CONTINUOUS
 62
    7
 10
330.93749872874366
 20
131.99999915715497
 40
0.4874999999996627
 50
112.6198649480387
 51
247.38013505195391
  0
LINE
  8
_0-6_JISSEN
  6
CONTINUOUS
 62
    7
 10
330.74999872874366
 20
134.54999915715388
 11
329.49999872874434
 21
134.54999915715368
  0
LINE
  8
_0-6_JISSEN
  6
CONTINUOUS
 62
    7
 10
329.49999872874434
 20
133.94999915715249
 11
330.74999872874366
 21
133.94999915715249
  0
ARC
  8
_0-6_JISSEN
  6
CONTINUOUS
 62
    7
 10
330.93749872874366
 20
134.99999915715298
 40
0.4874999999996627
 50
112.6198649480387
 51
247.38013505195391
  0
ARC
  8
_0-6_JISSEN
  6
CONTINUOUS
 62
    7
 10
327.44979653336975
 20
131.99999915716319
 40
0.6362531454111287
 50
134.98712495037344
 51
225.01287504961732
  0
ARC
  8
_0-6_JISSEN
  6
CONTINUOUS
 62
    7
 10
329.94979653336964
 20
131.99999915716307
 40
0.6362531454111287
 50
134.98712495037344
 51
225.01287504961732
  0
LINE
  8
_0-6_JISSEN
  6
CONTINUOUS
 62
    7
 10
326.59999872874437
 20
130.49999915715338
 11
326.99999872874434
 21
130.99999915716148
  0
LINE
  8
_0-6_JISSEN
  6
CONTINUOUS
 62
    7
 10
326.99999872875446
 20
131.54999915715348
 11
326.99999872874434
 21
130.99999915716148
  0
LINE
  8
_0-6_JISSEN
  6
CONTINUOUS
 62
    7
 10
329.49999872874434
 20
130.99999915716108
 11
329.49999872874434
 21
131.54999915716138
  0
LINE
  8
_0-5_SAISEN
  6
CONTINUOUS
 62
    4
 10
327.89999872874478
 20
130.49999915715378
 11
327.89999872874478
 21
129.8979138573265
  0
LINE
  8
_0-6_JISSEN
  6
CONTINUOUS
 62
    7
 10
327.89999872874478
 20
129.8979138573263
 11
328.39999872874478
 21
129.60923872273148
  0
LINE
  8
_0-6_JISSEN
  6
CONTINUOUS
 62
    7
 10
329.09999872874425
 20
130.49999915715318
 11
329.49999872874434
 21
130.99999915716108
  0
ARC
  8
_0-6_JISSEN
  6
CONTINUOUS
 62
    7
 10
327.44979653336998
 20
133.49999915716128
 40
0.6362531454111287
 50
134.98712495037344
 51
225.01287504961732
  0
LINE
  8
_0-6_JISSEN
  6
CONTINUOUS
 62
    7
 10
326.99999872875935
 20
133.0499991571468
 11
326.99999872874434
 21
132.44999915716289
  0
LINE
  8
_0-6_JISSEN
  6
CONTINUOUS
 62
    7
 10
326.99999872875276
 20
134.54999915715308
 11
326.99999872874457
 21
133.94999915716099
  0
ARC
  8
_0-6_JISSEN
  6
CONTINUOUS
 62
    7
 10
327.44979653336998
 20
134.99999915716108
 40
0.6362531454111287
 50
134.98712495037344
 51
225.01287504961732
  0
LINE
  8
_0-6_JISSEN
  6
CONTINUOUS
 62
    7
 10
329.49999872874434
 20
132.44999915716278
 11
329.49999872874434
 21
133.04999915716138
  0
LINE
  8
_0-6_JISSEN
  6
CONTINUOUS
 62
    7
 10
329.49999872874434
 20
132.44999915716269
 11
329.49999872874434
 21
133.0499991571613
  0
LINE
  8
_0-6_JISSEN
  6
CONTINUOUS
 62
    7
 10
329.49999872874434
 20
133.94999915716068
 11
329.49999872874434
 21
134.54999915716138
  0
ARC
  8
_0-6_JISSEN
  6
CONTINUOUS
 62
    7
 10
329.94979653337003
 20
133.49999915716108
 40
0.6362531454111287
 50
134.98712495037344
 51
225.01287504961732
  0
ARC
  8
_0-6_JISSEN
  6
CONTINUOUS
 62
    7
 10
329.94979653337003
 20
134.999999157161
 40
0.6362531454111287
 50
134.98712495037344
 51
225.01287504961732
  0
LINE
  8
_0-6_JISSEN
  6
CONTINUOUS
 62
    7
 10
330.74999872874366
 20
130.99999915715318
 11
330.74999872874366
 21
131.54999915715328
  0
LINE
  8
_0-6_JISSEN
  6
CONTINUOUS
 62
    7
 10
330.74999872874366
 20
132.44999915715459
 11
330.74999872874366
 21
133.0499991571532
  0
LINE
  8
_0-6_JISSEN
  6
CONTINUOUS
 62
    7
 10
330.74999872874366
 20
133.94999915715249
 11
330.74999872874366
 21
134.54999915715328
  0
LINE
  8
_0-6_JISSEN
  6
CONTINUOUS
 62
    7
 10
330.74999872874366
 20
135.99999915715318
 11
329.49999872874446
 21
135.99999915715318
  0
LINE
  8
_0-6_JISSEN
  6
CONTINUOUS
 62
    7
 10
330.74999872874366
 20
135.99999915715318
 11
330.24999872874366
 21
136.49999915715318
  0
LINE
  8
_0-6_JISSEN
  6
CONTINUOUS
 62
    7
 10
326.99999872874434
 20
135.99999915716148
 11
326.59999872874448
 21
136.49999915715338
  0
LINE
  8
_0-6_JISSEN
  6
CONTINUOUS
 62
    7
 10
329.49999872874446
 20
135.9999991571612
 11
329.09999872874448
 21
136.49999915715318
  0
LINE
  8
_0-6_JISSEN
  6
CONTINUOUS
 62
    7
 10
331.49999872874434
 20
138.4999991571585
 11
331.74999872874434
 21
138.2499991571585
  0
LINE
  8
_0-6_JISSEN
  6
CONTINUOUS
 62
    7
 10
330.89999872874574
 20
137.89999915715759
 11
331.49999872874434
 21
138.4999991571585
  0
LINE
  8
_0-6_JISSEN
  6
CONTINUOUS
 62
    7
 10
99.249998728745652
 20
111.4999991571614
 11
83.749998728742156
 21
111.49999915715739
  0
LINE
  8
_0-6_JISSEN
  6
CONTINUOUS
 62
    7
 10
48.099998728742548
 20
106.49999915715438
 11
48.199998728742457
 21
106.49999915715239
  0
LINE
  8
_0-6_JISSEN
  6
CONTINUOUS
 62
    7
 10
82.29999872874717
 20
106.49999915715239
 11
82.39999872874705
 21
106.49999915715438
  0
LINE
  8
_0-6_JISSEN
  6
CONTINUOUS
 62
    7
 10
47.599998728743969
 20
137.89999915715728
 11
46.999998728745368
 21
138.4999991571581
  0
LINE
  8
_0-6_JISSEN
  6
CONTINUOUS
 62
    7
 10
46.999998728745368
 20
138.4999991571581
 11
46.749998728745368
 21
138.2499991571581
  0
LINE
  8
_0-6_JISSEN
  6
CONTINUOUS
 62
    7
 10
48.999998728745254
 20
135.99999915716089
 11
49.39999872874526
 21
136.49999915715279
  0
LINE
  8
_0-6_JISSEN
  6
CONTINUOUS
 62
    7
 10
51.499998728745368
 20
135.99999915716108
 11
51.89999872874526
 21
136.4999991571531
  0
LINE
  8
_0-6_JISSEN
  6
CONTINUOUS
 62
    7
 10
47.74999872874605
 20
135.99999915715279
 11
48.24999872874605
 21
136.49999915715279
  0
LINE
  8
_0-6_JISSEN
  6
CONTINUOUS
 62
    7
 10
47.74999872874605
 20
135.99999915715279
 11
48.999998728745254
 21
135.99999915715279
  0
LINE
  8
_0-6_JISSEN
  6
CONTINUOUS
 62
    7
 10
47.74999872874605
 20
133.94999915715218
 11
47.74999872874605
 21
134.54999915715288
  0
LINE
  8
_0-6_JISSEN
  6
CONTINUOUS
 62
    7
 10
47.74999872874605
 20
132.4499991571542
 11
47.74999872874605
 21
133.04999915715288
  0
LINE
  8
_0-6_JISSEN
  6
CONTINUOUS
 62
    7
 10
47.74999872874605
 20
130.9999991571529
 11
47.74999872874605
 21
131.54999915715288
  0
ARC
  8
_0-6_JISSEN
  6
CONTINUOUS
 62
    7
 10
48.550200924119736
 20
134.99999915716069
 40
0.6362531454111287
 50
314.98712495038268
 51
45.01287504962653
  0
ARC
  8
_0-6_JISSEN
  6
CONTINUOUS
 62
    7
 10
48.550200924119736
 20
133.4999991571608
 40
0.6362531454111287
 50
314.98712495038268
 51
45.01287504962653
  0
LINE
  8
_0-6_JISSEN
  6
CONTINUOUS
 62
    7
 10
48.999998728745368
 20
133.94999915716039
 11
48.999998728745368
 21
134.54999915716098
  0
LINE
  8
_0-6_JISSEN
  6
CONTINUOUS
 62
    7
 10
48.999998728745368
 20
132.4499991571623
 11
48.999998728745368
 21
133.04999915716098
  0
LINE
  8
_0-6_JISSEN
  6
CONTINUOUS
 62
    7
 10
48.999998728745368
 20
132.44999915716238
 11
48.999998728745368
 21
133.0499991571611
  0
ARC
  8
_0-6_JISSEN
  6
CONTINUOUS
 62
    7
 10
51.050200924119736
 20
134.9999991571608
 40
0.6362531454111287
 50
314.98712495038268
 51
45.01287504962653
  0
LINE
  8
_0-6_JISSEN
  6
CONTINUOUS
 62
    7
 10
51.499998728736955
 20
134.5499991571528
 11
51.49999872874514
 21
133.94999915716059
  0
LINE
  8
_0-6_JISSEN
  6
CONTINUOUS
 62
    7
 10
51.499998728730361
 20
133.04999915714637
 11
51.499998728745368
 21
132.44999915716249
  0
ARC
  8
_0-6_JISSEN
  6
CONTINUOUS
 62
    7
 10
51.050200924119736
 20
133.49999915716089
 40
0.6362531454111287
 50
314.98712495038268
 51
45.01287504962653
  0
LINE
  8
_0-6_JISSEN
  6
CONTINUOUS
 62
    7
 10
49.399998728745345
 20
130.49999915715279
 11
48.999998728745368
 21
130.99999915716089
  0
LINE
  8
_0-6_JISSEN
  6
CONTINUOUS
 62
    7
 10
50.599998728745049
 20
129.89791385732588
 11
50.099998728745049
 21
129.60923872273119
  0
LINE
  8
_0-5_SAISEN
  6
CONTINUOUS
 62
    4
 10
50.599998728745049
 20
130.49999915715338
 11
50.599998728745049
 21
129.89791385732619
  0
LINE
  8
_0-6_JISSEN
  6
CONTINUOUS
 62
    7
 10
48.999998728745368
 20
130.99999915716089
 11
48.999998728745368
 21
131.54999915716098
  0
LINE
  8
_0-6_JISSEN
  6
CONTINUOUS
 62
    7
 10
51.49999872873525
 20
131.54999915715308
 11
51.499998728745368
 21
130.99999915716108
  0
LINE
  8
_0-6_JISSEN
  6
CONTINUOUS
 62
    7
 10
51.899998728745345
 20
130.4999991571531
 11
51.499998728745368
 21
130.99999915716108
  0
ARC
  8
_0-6_JISSEN
  6
CONTINUOUS
 62
    7
 10
48.550200924119963
 20
131.99999915716268
 40
0.6362531454111287
 50
314.98712495038268
 51
45.01287504962653
  0
ARC
  8
_0-6_JISSEN
  6
CONTINUOUS
 62
    7
 10
51.050200924119963
 20
131.99999915716279
 40
0.6362531454111287
 50
314.98712495038268
 51
45.01287504962653
  0
ARC
  8
_0-6_JISSEN
  6
CONTINUOUS
 62
    7
 10
47.56249872874605
 20
134.99999915715259
 40
0.4874999999996627
 50
292.61986494804597
 51
67.380135051961219
  0
LINE
  8
_0-6_JISSEN
  6
CONTINUOUS
 62
    7
 10
48.999998728745368
 20
133.94999915715218
 11
47.74999872874605
 21
133.94999915715218
  0
LINE
  8
_0-6_JISSEN
  6
CONTINUOUS
 62
    7
 10
47.74999872874605
 20
134.54999915715348
 11
48.999998728745368
 21
134.54999915715339
  0
ARC
  8
_0-6_JISSEN
  6
CONTINUOUS
 62
    7
 10
47.56249872874605
 20
131.99999915715458
 40
0.4874999999996627
 50
292.61986494804597
 51
67.380135051961219
  0
LINE
  8
_0-6_JISSEN
  6
CONTINUOUS
 62
    7
 10
48.24999872874605
 20
130.49999915715279
 11
47.74999872874605
 21
130.9999991571529
  0
LINE
  8
_0-6_JISSEN
  6
CONTINUOUS
 62
    7
 10
48.999998728745368
 20
131.549999157153
 11
47.74999872874605
 21
131.54999915715288
  0
LINE
  8
_0-6_JISSEN
  6
CONTINUOUS
 62
    7
 10
48.999998728745368
 20
132.44999915715218
 11
47.74999872874605
 21
132.44999915715218
  0
LINE
  8
_0-6_JISSEN
  6
CONTINUOUS
 62
    7
 10
47.74999872874605
 20
130.99999915715298
 11
48.999998728745368
 21
130.99999915715298
  0
LINE
  8
_0-6_JISSEN
  6
CONTINUOUS
 62
    7
 10
47.74999872874605
 20
133.04999915714538
 11
48.999998728745368
 21
133.04999915714569
  0
ARC
  8
_0-6_JISSEN
  6
CONTINUOUS
 62
    7
 10
47.56249872874605
 20
133.49999915715259
 40
0.4874999999996627
 50
292.61986494804597
 51
67.380135051961219
  0
LINE
  8
_0-6_JISSEN
  6
CONTINUOUS
 62
    7
 10
48.999998728745254
 20
135.44999915716028
 11
47.74999872874605
 21
135.44999915716028
  0
LINE
  8
_0-6_JISSEN
  6
CONTINUOUS
 62
    7
 10
50.005913628988054
 20
130.49999915715279
 11
50.005913628988054
 21
136.49999915715279
  0
LINE
  8
_0-6_JISSEN
  6
CONTINUOUS
 62
    7
 10
51.499998728738774
 20
135.9999991571529
 11
51.49999872874514
 21
135.44999915716048
  0
LINE
  8
_0-6_JISSEN
  6
CONTINUOUS
 62
    7
 10
47.74999872874605
 20
135.44999915715218
 11
47.74999872874605
 21
135.99999915715279
  0
LINE
  8
_0-6_JISSEN
  6
CONTINUOUS
 62
    7
 10
48.999998728745254
 20
135.44999915716039
 11
48.999998728745254
 21
135.99999915716089
  0
LINE
  8
_0-6_JISSEN
  6
CONTINUOUS
 62
    7
 10
53.74999872874514
 20
125.89791385732579
 11
53.74999872874514
 21
125.39791385732659
  0
LINE
  8
_0-6_JISSEN
  6
CONTINUOUS
 62
    7
 10
53.999998728745055
 20
122.89791385732607
 11
50.099998728745163
 21
122.89791385732607
  0
LINE
  8
_0-6_JISSEN
  6
CONTINUOUS
 62
    7
 10
49.999998728744458
 20
120.09999915715889
 11
49.999998728744458
 21
117.74999915715767
  0
LINE
  8
_0-6_JISSEN
  6
CONTINUOUS
 62
    7
 10
50.349998728745163
 20
116.89791385732619
 11
50.099998728745163
 21
117.33092655921789
  0
LINE
  8
_0-6_JISSEN
  6
CONTINUOUS
 62
    7
 10
49.499998728743549
 20
117.74999915717268
 11
49.999998728744458
 21
117.74999915717268
  0
ARC
  8
_0-6_JISSEN
  6
CONTINUOUS
 62
    7
 10
49.949998728745072
 20
113.09174957871008
 40
1.5
 50
0.000000000000007
 51
36.869897645837511
  0
LINE
  8
_0-6_JISSEN
  6
CONTINUOUS
 62
    7
 10
51.149998728745175
 20
114.19174957871007
 11
51.149998728745175
 21
113.99174957871008
  0
LINE
  8
_0-6_JISSEN
  6
CONTINUOUS
 62
    7
 10
51.149998728745175
 20
114.19174957871007
 11
51.149998728745175
 21
113.99174957871008
  0
LINE
  8
_0-6_JISSEN
  6
CONTINUOUS
 62
    7
 10
50.099998728745163
 20
117.33092655921789
 11
50.099998728745163
 21
122.89791385732607
  0
LINE
  8
_0-6_JISSEN
  6
CONTINUOUS
 62
    7
 10
47.59999872874485
 20
122.49999915715759
 11
49.999998728744458
 21
120.09999915715889
  0
LINE
  8
_0-6_JISSEN
  6
CONTINUOUS
 62
    7
 10
50.099998728745049
 20
130.4999991571535
 11
50.099998728745049
 21
125.89791385732619
  0
LINE
  8
_0-6_JISSEN
  6
CONTINUOUS
 62
    7
 10
47.59999872874775
 20
137.89999915715339
 11
47.59999872874485
 21
122.4999991571581
  0
LINE
  8
_0-5_SAISEN
  6
CONTINUOUS
 62
    4
 10
54.496113503938147
 20
137.4961139323444
 11
55.781225303184158
 21
139.4999991571531
  0
LINE
  8
_0-6_JISSEN
  6
CONTINUOUS
 62
    7
 10
54.558738046689371
 20
139.49999915715298
 11
75.941259410800257
 21
139.49999915715338
  0
LINE
  8
_0-6_JISSEN
  6
CONTINUOUS
 62
    7
 10
54.496113503938147
 20
137.4961139323444
 11
65.249998728745169
 21
137.49611393234539
  0
LINE
  8
_0-6_JISSEN
  6
CONTINUOUS
 62
    7
 10
62.749998728744657
 20
136.4999991571529
 11
62.749998728744657
 21
130.49999915715298
  0
LINE
  8
_0-6_JISSEN
  6
CONTINUOUS
 62
    7
 10
55.024780350670767
 20
123.11491361271428
 11
54.816243284963264
 21
123.28519848219878
  0
ARC
  8
_0-6_JISSEN
  6
CONTINUOUS
 62
    7
 10
54.24766364622667
 20
124.39791385732619
 40
1.5
 50
270
 51
90
  0
LINE
  8
_0-6_JISSEN
  6
CONTINUOUS
 62
    7
 10
60.176007123045565
 20
116.89791385732619
 11
60.176007123045451
 21
114.19174957871007
  0
LINE
  8
_0-6_JISSEN
  6
CONTINUOUS
 62
    7
 10
58.859998728745268
 20
114.19174957871007
 11
58.859998728745268
 21
116.89791385732619
  0
LINE
  8
_0-6_JISSEN
  6
CONTINUOUS
 62
    7
 10
56.987480912929868
 20
116.89791385732619
 11
56.987480912929868
 21
114.19174957871019
  0
LINE
  8
_0-4_TEXT
  6
CONTINUOUS
 62
    7
 10
63.74999872874514
 20
115.8529466723779
 11
65.249998728745169
 21
115.8529466723777
  0
LINE
  8
_0-6_JISSEN
  6
CONTINUOUS
 62
    7
 10
63.74999872874514
 20
115.34169967453317
 11
63.74999872874514
 21
114.19174957871007
  0
LINE
  8
_0-4_TEXT
  6
CONTINUOUS
 62
    7
 10
63.24999872874514
 20
116.3529466723779
 11
65.249998728745169
 21
116.3529466723779
  0
LINE
  8
_0-6_JISSEN
  6
CONTINUOUS
 62
    7
 10
63.24999872874514
 20
115.84169967453317
 11
63.74999872874514
 21
115.34169967453317
  0
LINE
  8
_0-6_JISSEN
  6
CONTINUOUS
 62
    7
 10
63.24999872874514
 20
115.84169967453317
 11
63.24999872874514
 21
116.89791385732619
  0
LINE
  8
_0-5_SAISEN
  6
CONTINUOUS
 62
    4
 10
63.549998728745265
 20
116.89791385732607
 11
63.549998728745265
 21
115.54169967453328
  0
LINE
  8
_0-6_JISSEN
  6
CONTINUOUS
 62
    7
 10
61.576007123045542
 20
116.89791385732619
 11
61.576007123045542
 21
114.19174957871007
  0
LINE
  8
_0-3_SUNPOU
  6
CONTINUOUS
 62
    7
 10
50.099915290728859
 20
129.89791385732619
 11
65.249998728745169
 21
129.89791385732619
  0
ARC
  8
_0-6_JISSEN
  6
CONTINUOUS
 62
    7
 10
54.49999872874514
 20
122.89791385732659
 40
2.5000000000000089
 50
65.664120666860626
 51
180
  0
LINE
  8
_0-6_JISSEN
  6
CONTINUOUS
 62
    7
 10
50.099998728745049
 20
125.89791385732619
 11
54.247663646226755
 21
125.89791385732579
  0
LINE
  8
_0-4_TEXT
  6
CONTINUOUS
 62
    7
 10
50.099998728745163
 20
117.33092655921789
 11
65.249998728745169
 21
117.33092655921789
  0
LINE
  8
_0-6_JISSEN
  6
CONTINUOUS
 62
    7
 10
65.249998728745169
 20
116.89791385732619
 11
50.349998728745163
 21
116.89791385732619
  0
LINE
  8
_0-6_JISSEN
  6
CONTINUOUS
 62
    7
 10
65.249998728745169
 20
114.19174957871007
 11
51.149998728745175
 21
114.19174957871007
  0
LINE
  8
_0-6_JISSEN
  6
CONTINUOUS
 62
    7
 10
51.149998728745175
 20
113.9917495787102
 11
65.249998728745169
 21
113.9917495787102
  0
LINE
  8
_0-6_JISSEN
  6
CONTINUOUS
 62
    7
 10
65.249998728745169
 20
114.19174957871007
 11
51.149998728745175
 21
114.19174957871007
  0
LINE
  8
_0-6_JISSEN
  6
CONTINUOUS
 62
    7
 10
54.527486484985275
 20
138.4999991571581
 11
46.999998728745368
 21
138.4999991571581
  0
LINE
  8
_0-6_JISSEN
  6
CONTINUOUS
 62
    7
 10
62.749998728744657
 20
132.44999915715229
 11
51.499998728745368
 21
132.44999915715229
  0
LINE
  8
_0-6_JISSEN
  6
CONTINUOUS
 62
    7
 10
62.749998728744657
 20
131.54999915715368
 11
51.499998728745368
 21
131.54999915715308
  0
LINE
  8
_0-6_JISSEN
  6
CONTINUOUS
 62
    7
 10
51.499998728745368
 20
130.9999991571531
 11
62.749998728744657
 21
130.9999991571531
  0
LINE
  8
_0-6_JISSEN
  6
CONTINUOUS
 62
    7
 10
62.749998728744657
 20
133.94999915715229
 11
51.499998728745368
 21
133.94999915715229
  0
LINE
  8
_0-6_JISSEN
  6
CONTINUOUS
 62
    7
 10
51.499998728745368
 20
133.04999915714629
 11
62.749998728744657
 21
133.04999915714907
  0
LINE
  8
_0-6_JISSEN
  6
CONTINUOUS
 62
    7
 10
51.499998728745368
 20
134.5499991571528
 11
62.749998728744657
 21
134.54999915715018
  0
LINE
  8
_0-6_JISSEN
  6
CONTINUOUS
 62
    7
 10
65.249998728745169
 20
130.4999991571531
 11
48.24999872874605
 21
130.49999915715279
  0
LINE
  8
_0-6_JISSEN
  6
CONTINUOUS
 62
    7
 10
51.499998728745368
 20
135.9999991571529
 11
62.749998728744657
 21
135.9999991571529
  0
LINE
  8
_0-6_JISSEN
  6
CONTINUOUS
 62
    7
 10
62.749998728744657
 20
135.44999915716039
 11
51.499998728745368
 21
135.44999915716039
  0
LINE
  8
_0-6_JISSEN
  6
CONTINUOUS
 62
    7
 10
48.24999872874605
 20
136.49999915715279
 11
65.249998728745169
 21
136.4999991571531
  0
ARC
  8
_0-6_JISSEN
  6
CONTINUOUS
 62
    7
 10
54.49999872874514
 20
122.89791385732659
 40
0.5
 50
50.765995579327651
 51
180
  0
LINE
  8
_0-6_JISSEN
  6
CONTINUOUS
 62
    7
 10
54.24766364622667
 20
122.89791385732607
 11
53.964082918122159
 21
122.89791385732607
  0
LINE
  8
_0-6_JISSEN
  6
CONTINUOUS
 62
    7
 10
53.74999872874514
 20
125.39791385732659
 11
55.365697634976158
 21
125.39791385732659
  0
LINE
  8
_0-6_JISSEN
  6
CONTINUOUS
 62
    7
 10
53.49999872874605
 20
136.49999915715199
 11
54.496113503938147
 21
137.4961139323444
  0
LINE
  8
_0-6_JISSEN
  6
CONTINUOUS
 62
    7
 10
54.496113503938147
 20
137.4961139323444
 11
54.683744293505555
 21
143.4999991571525
  0
LINE
  8
_0-5_SAISEN
  6
CONTINUOUS
 62
    4
 10
55.781225303184158
 20
139.4999991571531
 11
55.906231550000456
 21
143.4999991571525
  0
LINE
  8
_0-6_JISSEN
  6
CONTINUOUS
 62
    7
 10
31.249998728743805
 20
110.99634672031507
 11
31.249998728743805
 21
111.49999915715259
  0
LINE
  8
_0-6_JISSEN
  6
CONTINUOUS
 62
    7
 10
34.079534764188054
 20
109.64935323682249
 11
32.072083026455459
 21
110.01230098820758
  0
ARC
  8
_0-6_JISSEN
  6
CONTINUOUS
 62
    7
 10
32.249998728744742
 20
110.99634672031507
 40
1
 50
179.99999999997388
 51
259.75162116555356
  0
ARC
  8
_0-6_JISSEN
  6
CONTINUOUS
 62
    7
 10
45.749998728747158
 20
111.09607584459928
 40
1
 50
259.7516211655801
 51
0.0000000000032187
  0
LINE
  8
_0-6_JISSEN
  6
CONTINUOUS
 62
    7
 10
48.199998728742457
 20
106.49999915715239
 11
48.316987937668955
 21
106.49999915715429
  0
ARC
  8
_0-6_JISSEN
  6
CONTINUOUS
 62
    7
 10
48.316987937668955
 20
106.69999915715428
 40
0.2
 50
270
 51
354.92039214003148
  0
ARC
  8
_0-6_JISSEN
  6
CONTINUOUS
 62
    7
 10
54.051666076895458
 20
107.58881876982809
 40
1.340962879392062
 50
142.9939697501317
 51
166.4699450128802
  0
LINE
  8
_0-6_JISSEN
  6
CONTINUOUS
 62
    7
 10
52.747918496599809
 20
107.90254427210789
 11
52.747918496599809
 21
107.90254427210789
  0
LINE
  8
_0-6_JISSEN
  6
CONTINUOUS
 62
    7
 10
52.747918496599809
 20
107.90254427210789
 11
52.81734136188242
 21
107.69121472442447
  0
LINE
  8
_0-6_JISSEN
  6
CONTINUOUS
 62
    7
 10
52.81734136188242
 20
107.69121472442447
 11
52.909760379725547
 21
107.47287505006672
  0
LINE
  8
_0-6_JISSEN
  6
CONTINUOUS
 62
    7
 10
52.909760379725547
 20
107.47287505006672
 11
52.911846996315617
 21
107.46843573217217
  0
ARC
  8
_0-6_JISSEN
  6
CONTINUOUS
 62
    7
 10
53.051084796421776
 20
108.34297596716809
 40
0.0879999999999999
 50
65.5355231717609
 51
142.99396975011084
  0
ARC
  8
_0-6_JISSEN
  6
CONTINUOUS
 62
    7
 10
51.74999872874514
 20
108.77777736909599
 40
0.2999999999999999
 50
180
 51
207.00000000000179
  0
ARC
  8
_0-6_JISSEN
  6
CONTINUOUS
 62
    7
 10
53.872558886373156
 20
104.39174957871009
 40
0.2
 50
207.00000000000179
 51
270
  0
LINE
  8
_0-6_JISSEN
  6
CONTINUOUS
 62
    7
 10
51.482696771488662
 20
108.64158021917419
 11
53.694357581535456
 21
104.30095147876219
  0
LINE
  8
_0-6_JISSEN
  6
CONTINUOUS
 62
    7
 10
31.249998728743805
 20
111.49999915715259
 11
46.749998728747158
 21
111.49999915715259
  0
LINE
  8
_0-6_JISSEN
  6
CONTINUOUS
 62
    7
 10
45.572083026458358
 20
110.11203011249168
 11
37.895273182668745
 21
111.49999915715259
  0
LINE
  8
_0-6_JISSEN
  6
CONTINUOUS
 62
    7
 10
46.59999872874775
 20
84.499999157093882
 11
45.599998728742349
 21
84.499999157096582
  0
ARC
  8
_0-6_JISSEN
  6
CONTINUOUS
 62
    7
 10
45.599998728743259
 20
85.999999157095687
 40
1.4999999999990901
 50
179.99999999911401
 51
269.99999999984362
  0
LINE
  8
_0-6_JISSEN
  6
CONTINUOUS
 62
    7
 10
48.099998728742349
 20
87.499999157093384
 11
48.099998728742349
 21
85.999999157157589
  0
ARC
  8
_0-6_JISSEN
  6
CONTINUOUS
 62
    7
 10
46.599998728742349
 20
85.999999157157589
 40
1.5
 50
269.99999999984362
 51
0
  0
LINE
  8
_0-6_JISSEN
  6
CONTINUOUS
 62
    7
 10
44.09999872874414
 20
85.999999157095687
 11
44.09999872874414
 21
95.499999157157987
  0
ARC
  8
_0-6_JISSEN
  6
CONTINUOUS
 62
    7
 10
29.099998728744197
 20
95.499999157157987
 40
15
 50
0.000000000000007
 51
70.611666382699582
  0
LINE
  8
_0-6_JISSEN
  6
CONTINUOUS
 62
    7
 10
48.099998728742548
 20
106.49999915715438
 11
48.099998728742349
 21
87.499999157093384
  0
ARC
  8
_0-6_JISSEN
  6
CONTINUOUS
 62
    7
 10
58.709409092768652
 20
107.18210453982559
 40
1.375879154787482
 50
114.4167034614543
 51
165.01444330966612
  0
LINE
  8
_0-6_JISSEN
  6
CONTINUOUS
 62
    7
 10
57.380322157727619
 20
107.53787323951956
 11
57.380322157727619
 21
107.53787323951956
  0
LINE
  8
_0-6_JISSEN
  6
CONTINUOUS
 62
    7
 10
57.380322157727619
 20
107.53787323951956
 11
57.406113436908512
 21
107.309583303742
  0
LINE
  8
_0-6_JISSEN
  6
CONTINUOUS
 62
    7
 10
57.406113436908512
 20
107.309583303742
 11
57.465103886531701
 21
107.0849141749283
  0
LINE
  8
_0-6_JISSEN
  6
CONTINUOUS
 62
    7
 10
57.465103886531701
 20
107.0849141749283
 11
57.472455512886356
 21
107.063790072907
  0
ARC
  8
_0-6_JISSEN
  6
CONTINUOUS
 62
    7
 10
65.249998728745169
 20
107.01362859898109
 40
1.503191537583755
 50
90
 51
176.26571619777661
  0
LINE
  8
_0-2_HATCH
  6
CONTINUOUS
 62
    4
 10
55.999998728745254
 20
101.94174957871019
 11
55.999998728745254
 21
101.7917495787103
  0
LINE
  8
_0-6_JISSEN
  6
CONTINUOUS
 62
    7
 10
55.717352761794757
 20
104.49174957871008
 11
54.705579901947374
 21
104.49174957871008
  0
LINE
  8
_0-6_JISSEN
  6
CONTINUOUS
 62
    7
 10
60.416465687187753
 20
104.49174957871008
 11
58.387574173006158
 21
104.49174957871008
  0
ARC
  8
_0-2_HATCH
  6
CONTINUOUS
 62
    4
 10
57.749998728745254
 20
101.94174957871019
 40
0.2999999999998692
 50
90
 51
180.00000000000321
  0
ARC
  8
_0-2_HATCH
  6
CONTINUOUS
 62
    4
 10
57.24999872874514
 20
97.691749578710187
 40
0.2999999999999999
 50
199.47122063488749
 51
270
  0
LINE
  8
_0-2_HATCH
  6
CONTINUOUS
 62
    4
 10
55.99999872874514
 20
97.591749578710193
 11
55.99999872874514
 21
97.891749578710176
  0
LINE
  8
_0-2_HATCH
  6
CONTINUOUS
 62
    4
 10
55.99999872874514
 20
97.591749578710193
 11
55.99999872874514
 21
97.891749578710176
  0
LINE
  8
_0-2_HATCH
  6
CONTINUOUS
 62
    4
 10
55.999998728745254
 20
99.941749578710073
 11
55.999998728745254
 21
100.09174957871008
  0
ARC
  8
_0-2_HATCH
  6
CONTINUOUS
 62
    4
 10
57.749998728745254
 20
99.941749578710073
 40
0.2999999999998692
 50
180
 51
270
  0
LINE
  8
_0-2_HATCH
  6
CONTINUOUS
 62
    4
 10
63.149998728745345
 20
104.19174957871019
 11
63.149998728745345
 21
102.2417495787102
  0
ARC
  8
_0-2_HATCH
  6
CONTINUOUS
 62
    4
 10
62.049998728745351
 20
101.59174957871019
 40
0.2
 50
0.000000000000007
 51
90.000000000000014
  0
LINE
  8
_0-2_HATCH
  6
CONTINUOUS
 62
    4
 10
62.249998728745254
 20
101.59174957871019
 11
62.249998728745254
 21
101.29174957871018
  0
LINE
  8
_0-6_JISSEN
  6
CONTINUOUS
 62
    7
 10
65.249998728745169
 20
104.49174957871008
 11
63.749998728745254
 21
104.49174957871008
  0
LINE
  8
_0-2_HATCH
  6
CONTINUOUS
 62
    4
 10
62.249998728745254
 20
100.29174957871018
 11
62.249998728745254
 21
100.59174957871008
  0
ARC
  8
_0-2_HATCH
  6
CONTINUOUS
 62
    4
 10
62.049998728745351
 20
100.29174957871018
 40
0.2
 50
270
 51
0
  0
LINE
  8
_0-2_HATCH
  6
CONTINUOUS
 62
    4
 10
62.449998728745157
 20
98.091749578710278
 11
62.449998728745157
 21
97.991749578710085
  0
LINE
  8
_0-2_HATCH
  6
CONTINUOUS
 62
    4
 10
63.149998728745345
 20
99.641749578710176
 11
63.149998728745345
 21
98.391749578710176
  0
ARC
  8
_0-2_HATCH
  6
CONTINUOUS
 62
    4
 10
62.349998728745163
 20
97.991749578710085
 40
0.1
 50
270
 51
0
  0
ARC
  8
_0-2_HATCH
  6
CONTINUOUS
 62
    4
 10
62.749998728745254
 20
98.091749578710193
 40
0.2999999999999999
 50
90
 51
179.99999999998366
  0
ARC
  8
_0-2_HATCH
  6
CONTINUOUS
 62
    4
 10
62.599998728745277
 20
100.59174957871008
 40
0.3499999999999999
 50
90
 51
180
  0
LINE
  8
_0-2_HATCH
  6
CONTINUOUS
 62
    4
 10
65.249998728745169
 20
100.94174957871007
 11
62.599998728745277
 21
100.94174957871007
  0
LINE
  8
_0-2_HATCH
  6
CONTINUOUS
 62
    4
 10
62.74999872874514
 20
98.391749578710176
 11
65.249998728745169
 21
98.391749578710176
  0
ARC
  8
_0-2_HATCH
  6
CONTINUOUS
 62
    4
 10
62.599998728745277
 20
101.29174957871018
 40
0.3499999999999999
 50
180
 51
270
  0
LINE
  8
_0-2_HATCH
  6
CONTINUOUS
 62
    4
 10
65.249998728745169
 20
101.94174957871007
 11
55.999998728745254
 21
101.94174957871019
  0
LINE
  8
_0-2_HATCH
  6
CONTINUOUS
 62
    4
 10
65.249998728745169
 20
102.2417495787102
 11
57.749998728745254
 21
102.2417495787102
  0
LINE
  8
_0-2_HATCH
  6
CONTINUOUS
 62
    4
 10
65.249998728745169
 20
101.7917495787101
 11
55.999998728745254
 21
101.7917495787103
  0
LINE
  8
_0-2_HATCH
  6
CONTINUOUS
 62
    4
 10
65.249998728745169
 20
97.391749578710176
 11
57.24999872874514
 21
97.391749578710176
  0
LINE
  8
_0-2_HATCH
  6
CONTINUOUS
 62
    4
 10
65.249998728745169
 20
97.591749578710193
 11
55.99999872874514
 21
97.591749578710193
  0
LINE
  8
_0-2_HATCH
  6
CONTINUOUS
 62
    4
 10
55.99999872874514
 20
97.891749578710176
 11
65.249998728745169
 21
97.891749578710176
  0
LINE
  8
_0-2_HATCH
  6
CONTINUOUS
 62
    4
 10
65.249998728745169
 20
99.641749578710176
 11
57.749998728745254
 21
99.641749578710176
  0
LINE
  8
_0-2_HATCH
  6
CONTINUOUS
 62
    4
 10
65.249998728745169
 20
99.941749578710187
 11
55.999998728745254
 21
99.941749578710187
  0
LINE
  8
_0-2_HATCH
  6
CONTINUOUS
 62
    4
 10
65.249998728745169
 20
100.09174957871008
 11
55.999998728745254
 21
100.09174957871008
  0
LINE
  8
_0-6_JISSEN
  6
CONTINUOUS
 62
    7
 10
60.416465687187667
 20
104.49174957871008
 11
59.273399542103448
 21
107.70446126389979
  0
LINE
  8
_0-6_JISSEN
  6
CONTINUOUS
 62
    7
 10
63.749998728745254
 20
104.49174957871008
 11
63.749998728745254
 21
107.11153058396499
  0
LINE
  8
_0-6_JISSEN
  6
CONTINUOUS
 62
    7
 10
58.387574173006158
 20
104.49174957871008
 11
57.472455512900069
 21
107.06379007286807
  0
ARC
  8
_0-6_JISSEN
  6
CONTINUOUS
 62
    7
 10
63.749998728744657
 20
85.999999157094791
 40
1.4999999999990901
 50
0.000000000000007
 51
90.000000000000014
  0
LINE
  8
_0-6_JISSEN
  6
CONTINUOUS
 62
    7
 10
63.749998728744856
 20
97.391749578710176
 11
63.749998728743776
 21
87.499999157093882
  0
LINE
  8
_0-6_JISSEN
  6
CONTINUOUS
 62
    7
 10
63.749998728744657
 20
87.499999157093882
 11
48.099998728742349
 21
87.499999157093882
  0
LINE
  8
_0-6_JISSEN
  6
CONTINUOUS
 62
    7
 10
65.249998728744856
 20
84.49999915715749
 11
45.599998728743259
 21
84.49999915715749
  0
LINE
  8
_0-6_JISSEN
  6
CONTINUOUS
 62
    7
 10
65.249998728745254
 20
104.19174957871007
 11
53.872558886373156
 21
104.19174957871007
  0
LINE
  8
_0-6_JISSEN
  6
CONTINUOUS
 62
    7
 10
55.717352761794757
 20
104.49174957871008
 11
53.676708992730255
 21
107.87818243749908
  0
LINE
  8
_0-6_JISSEN
  6
CONTINUOUS
 62
    7
 10
54.70557990194726
 20
104.49174957871008
 11
52.911846996315546
 21
107.4684357321722
  0
LINE
  8
_0-6_JISSEN
  6
CONTINUOUS
 62
    7
 10
51.452403446002563
 20
108.73986895724099
 11
65.249998728745169
 21
108.73986895724099
  0
LINE
  8
_0-6_JISSEN
  6
CONTINUOUS
 62
    7
 10
48.516202465808135
 20
106.68229119909759
 11
49.499998728743549
 21
117.74999915717268
  0
LINE
  8
_0-6_JISSEN
  6
CONTINUOUS
 62
    7
 10
46.749998728747158
 20
111.09607584459928
 11
46.749998728745368
 21
138.2499991571581
  0
LINE
  8
_0-6_JISSEN
  6
CONTINUOUS
 62
    7
 10
51.449998728745157
 20
113.09174957871008
 11
51.449998728745157
 21
108.77777736909599
  0
LINE
  8
_0-6_JISSEN
  6
CONTINUOUS
 62
    7
 10
79.04999872874447
 20
113.09174957871008
 11
79.04999872874447
 21
108.77777736909599
  0
LINE
  8
_0-6_JISSEN
  6
CONTINUOUS
 62
    7
 10
83.749998728742469
 20
111.09607584459928
 11
83.749998728744259
 21
138.2499991571581
  0
LINE
  8
_0-6_JISSEN
  6
CONTINUOUS
 62
    7
 10
81.983794991681464
 20
106.68229119909759
 11
80.99999872874605
 21
117.74999915717268
  0
LINE
  8
_0-6_JISSEN
  6
CONTINUOUS
 62
    7
 10
79.047594011487064
 20
108.73986895724099
 11
65.249998728744458
 21
108.73986895724099
  0
LINE
  8
_0-6_JISSEN
  6
CONTINUOUS
 62
    7
 10
75.794417555542367
 20
104.49174957871008
 11
77.588150461174052
 21
107.4684357321722
  0
LINE
  8
_0-6_JISSEN
  6
CONTINUOUS
 62
    7
 10
74.78264469569487
 20
104.49174957871008
 11
76.823288464759344
 21
107.87818243749908
  0
LINE
  8
_0-6_JISSEN
  6
CONTINUOUS
 62
    7
 10
65.249998728744345
 20
104.19174957871007
 11
76.627438571116443
 21
104.19174957871007
  0
LINE
  8
_0-6_JISSEN
  6
CONTINUOUS
 62
    7
 10
65.249998728744856
 20
84.49999915715749
 11
84.899998728746368
 21
84.49999915715749
  0
LINE
  8
_0-6_JISSEN
  6
CONTINUOUS
 62
    7
 10
66.74999872874497
 20
87.499999157093882
 11
82.399998728747249
 21
87.499999157093882
  0
LINE
  8
_0-6_JISSEN
  6
CONTINUOUS
 62
    7
 10
66.749998728744742
 20
97.391749578710176
 11
66.749998728745851
 21
87.499999157093882
  0
ARC
  8
_0-6_JISSEN
  6
CONTINUOUS
 62
    7
 10
66.74999872874497
 20
85.999999157094791
 40
1.4999999999990901
 50
90
 51
180
  0
LINE
  8
_0-6_JISSEN
  6
CONTINUOUS
 62
    7
 10
72.112423284483469
 20
104.49174957871008
 11
73.027541944589558
 21
107.06379007286807
  0
LINE
  8
_0-6_JISSEN
  6
CONTINUOUS
 62
    7
 10
66.749998728744345
 20
104.49174957871008
 11
66.749998728744345
 21
107.11153058396499
  0
LINE
  8
_0-6_JISSEN
  6
CONTINUOUS
 62
    7
 10
70.08353177030196
 20
104.49174957871008
 11
71.226597915386151
 21
107.70446126389979
  0
LINE
  8
_0-2_HATCH
  6
CONTINUOUS
 62
    4
 10
65.249998728744458
 20
100.09174957871008
 11
74.499998728744345
 21
100.09174957871008
  0
LINE
  8
_0-2_HATCH
  6
CONTINUOUS
 62
    4
 10
65.249998728744458
 20
99.941749578710187
 11
74.499998728744345
 21
99.941749578710187
  0
LINE
  8
_0-2_HATCH
  6
CONTINUOUS
 62
    4
 10
65.249998728744458
 20
99.641749578710176
 11
72.749998728744345
 21
99.641749578710176
  0
LINE
  8
_0-2_HATCH
  6
CONTINUOUS
 62
    4
 10
74.499998728744458
 20
97.891749578710176
 11
65.249998728744458
 21
97.891749578710176
  0
LINE
  8
_0-2_HATCH
  6
CONTINUOUS
 62
    4
 10
65.249998728744458
 20
97.591749578710193
 11
74.499998728744458
 21
97.591749578710193
  0
LINE
  8
_0-2_HATCH
  6
CONTINUOUS
 62
    4
 10
65.249998728744458
 20
97.391749578710176
 11
73.249998728744458
 21
97.391749578710176
  0
LINE
  8
_0-2_HATCH
  6
CONTINUOUS
 62
    4
 10
65.249998728744458
 20
101.7917495787101
 11
74.499998728744345
 21
101.7917495787103
  0
LINE
  8
_0-2_HATCH
  6
CONTINUOUS
 62
    4
 10
65.249998728744458
 20
102.2417495787102
 11
72.749998728744345
 21
102.2417495787102
  0
LINE
  8
_0-2_HATCH
  6
CONTINUOUS
 62
    4
 10
65.249998728744458
 20
101.94174957871007
 11
74.499998728744345
 21
101.94174957871019
  0
ARC
  8
_0-2_HATCH
  6
CONTINUOUS
 62
    4
 10
67.89999872874435
 20
101.29174957871018
 40
0.3499999999999999
 50
270
 51
0
  0
LINE
  8
_0-2_HATCH
  6
CONTINUOUS
 62
    4
 10
67.749998728744458
 20
98.391749578710176
 11
65.249998728744458
 21
98.391749578710176
  0
LINE
  8
_0-2_HATCH
  6
CONTINUOUS
 62
    4
 10
65.249998728744458
 20
100.94174957871007
 11
67.89999872874435
 21
100.94174957871007
  0
ARC
  8
_0-2_HATCH
  6
CONTINUOUS
 62
    4
 10
67.89999872874435
 20
100.59174957871008
 40
0.3499999999999999
 50
0
 51
90
  0
ARC
  8
_0-2_HATCH
  6
CONTINUOUS
 62
    4
 10
67.749998728744345
 20
98.091749578710193
 40
0.2999999999999999
 50
0.0000000000162844
 51
90
  0
ARC
  8
_0-2_HATCH
  6
CONTINUOUS
 62
    4
 10
68.149998728744464
 20
97.991749578710085
 40
0.1
 50
180
 51
270
  0
LINE
  8
_0-2_HATCH
  6
CONTINUOUS
 62
    4
 10
67.349998728744254
 20
99.641749578710176
 11
67.349998728744254
 21
98.391749578710176
  0
LINE
  8
_0-2_HATCH
  6
CONTINUOUS
 62
    4
 10
68.04999872874447
 20
98.091749578710278
 11
68.04999872874447
 21
97.991749578710085
  0
ARC
  8
_0-2_HATCH
  6
CONTINUOUS
 62
    4
 10
68.449998728744248
 20
100.29174957871018
 40
0.2
 50
180
 51
270
  0
LINE
  8
_0-2_HATCH
  6
CONTINUOUS
 62
    4
 10
68.249998728744345
 20
100.29174957871018
 11
68.249998728744345
 21
100.59174957871008
  0
LINE
  8
_0-6_JISSEN
  6
CONTINUOUS
 62
    7
 10
65.249998728744458
 20
104.49174957871008
 11
66.749998728744345
 21
104.49174957871008
  0
LINE
  8
_0-2_HATCH
  6
CONTINUOUS
 62
    4
 10
68.249998728744345
 20
101.59174957871019
 11
68.249998728744345
 21
101.29174957871018
  0
ARC
  8
_0-2_HATCH
  6
CONTINUOUS
 62
    4
 10
68.449998728744248
 20
101.59174957871019
 40
0.2
 50
90
 51
180
  0
LINE
  8
_0-2_HATCH
  6
CONTINUOUS
 62
    4
 10
67.349998728744254
 20
104.19174957871019
 11
67.349998728744254
 21
102.2417495787102
  0
ARC
  8
_0-2_HATCH
  6
CONTINUOUS
 62
    4
 10
72.749998728744345
 20
99.941749578710073
 40
0.2999999999998692
 50
270
 51
0
  0
LINE
  8
_0-2_HATCH
  6
CONTINUOUS
 62
    4
 10
74.499998728744345
 20
99.941749578710073
 11
74.499998728744345
 21
100.09174957871008
  0
LINE
  8
_0-2_HATCH
  6
CONTINUOUS
 62
    4
 10
74.499998728744458
 20
97.591749578710193
 11
74.499998728744458
 21
97.891749578710176
  0
LINE
  8
_0-2_HATCH
  6
CONTINUOUS
 62
    4
 10
74.499998728744458
 20
97.591749578710193
 11
74.499998728744458
 21
97.891749578710176
  0
ARC
  8
_0-2_HATCH
  6
CONTINUOUS
 62
    4
 10
73.249998728744458
 20
97.691749578710187
 40
0.2999999999999999
 50
270
 51
340.52877936511243
  0
ARC
  8
_0-2_HATCH
  6
CONTINUOUS
 62
    4
 10
72.749998728744345
 20
101.94174957871019
 40
0.2999999999998692
 50
359.99999999999676
 51
90.000000000000043
  0
LINE
  8
_0-6_JISSEN
  6
CONTINUOUS
 62
    7
 10
70.083531770301846
 20
104.49174957871008
 11
72.112423284483469
 21
104.49174957871008
  0
LINE
  8
_0-6_JISSEN
  6
CONTINUOUS
 62
    7
 10
74.78264469569487
 20
104.49174957871008
 11
75.794417555542253
 21
104.49174957871008
  0
LINE
  8
_0-2_HATCH
  6
CONTINUOUS
 62
    4
 10
74.499998728744345
 20
101.94174957871019
 11
74.499998728744345
 21
101.7917495787103
  0
ARC
  8
_0-6_JISSEN
  6
CONTINUOUS
 62
    7
 10
65.249998728744458
 20
107.01362859898109
 40
1.503191537583755
 50
3.734283802223318
 51
90
  0
LINE
  8
_0-6_JISSEN
  6
CONTINUOUS
 62
    7
 10
71.203223355593721
 20
108.21991420880389
 11
71.203223355593721
 21
108.21991420880389
  0
LINE
  8
_0-6_JISSEN
  6
CONTINUOUS
 62
    7
 10
71.203223355593721
 20
108.21991420880389
 11
71.078991687923434
 21
108.02665796024522
  0
LINE
  8
_0-6_JISSEN
  6
CONTINUOUS
 62
    7
 10
71.078991687923434
 20
108.02665796024522
 11
70.982782333753946
 21
107.81523456806985
  0
LINE
  8
_0-6_JISSEN
  6
CONTINUOUS
 62
    7
 10
70.982782333753946
 20
107.81523456806985
 11
70.97513572120161
 21
107.79421544789942
  0
ARC
  8
_0-6_JISSEN
  6
CONTINUOUS
 62
    7
 10
71.790588364720946
 20
107.18210453982559
 40
1.375879154787482
 50
14.98555669033386
 51
65.583296538545611
  0
LINE
  8
_0-6_JISSEN
  6
CONTINUOUS
 62
    7
 10
82.39999872874705
 20
106.49999915715438
 11
82.399998728747249
 21
87.499999157093384
  0
ARC
  8
_0-6_JISSEN
  6
CONTINUOUS
 62
    7
 10
101.39999872874546
 20
95.499999157157987
 40
15
 50
109.3883336173004
 51
180
  0
LINE
  8
_0-6_JISSEN
  6
CONTINUOUS
 62
    7
 10
86.399998728745459
 20
85.999999157095687
 11
86.399998728745459
 21
95.499999157157987
  0
ARC
  8
_0-6_JISSEN
  6
CONTINUOUS
 62
    7
 10
83.899998728747249
 20
85.999999157157589
 40
1.5
 50
180
 51
270.00000000015632
  0
LINE
  8
_0-6_JISSEN
  6
CONTINUOUS
 62
    7
 10
82.399998728747249
 20
87.499999157093384
 11
82.399998728747249
 21
85.999999157157589
  0
ARC
  8
_0-6_JISSEN
  6
CONTINUOUS
 62
    7
 10
84.899998728746368
 20
85.999999157095687
 40
1.4999999999990901
 50
270.00000000015632
 51
0.0000000008858608
  0
LINE
  8
_0-6_JISSEN
  6
CONTINUOUS
 62
    7
 10
83.899998728741849
 20
84.499999157093882
 11
84.899998728747249
 21
84.499999157096582
  0
LINE
  8
_0-6_JISSEN
  6
CONTINUOUS
 62
    7
 10
84.927914431031269
 20
110.11203011249168
 11
92.604724274820853
 21
111.49999915715259
  0
LINE
  8
_0-6_JISSEN
  6
CONTINUOUS
 62
    7
 10
99.249998728745851
 20
111.49999915715259
 11
92.604724274820853
 21
111.49999915715259
  0
LINE
  8
_0-6_JISSEN
  6
CONTINUOUS
 62
    7
 10
79.017300686000965
 20
108.64158021917419
 11
76.805639875954142
 21
104.30095147876219
  0
ARC
  8
_0-6_JISSEN
  6
CONTINUOUS
 62
    7
 10
76.627438571116443
 20
104.39174957871009
 40
0.2
 50
270
 51
332.99999999999818
  0
ARC
  8
_0-6_JISSEN
  6
CONTINUOUS
 62
    7
 10
78.749998728744458
 20
108.77777736909599
 40
0.2999999999999999
 50
332.99999999999818
 51
0
  0
ARC
  8
_0-6_JISSEN
  6
CONTINUOUS
 62
    7
 10
77.448912661067851
 20
108.34297596716809
 40
0.0879999999999999
 50
37.006030249889079
 51
114.4644768282391
  0
LINE
  8
_0-6_JISSEN
  6
CONTINUOUS
 62
    7
 10
76.930597622620922
 20
108.39756391201986
 11
76.930597622620922
 21
108.39756391201986
  0
LINE
  8
_0-6_JISSEN
  6
CONTINUOUS
 62
    7
 10
76.930597622620922
 20
108.39756391201986
 11
76.776188761237051
 21
108.23744640681116
  0
LINE
  8
_0-6_JISSEN
  6
CONTINUOUS
 62
    7
 10
76.776188761237051
 20
108.23744640681116
 11
76.626326298552897
 21
108.05372180166536
  0
LINE
  8
_0-6_JISSEN
  6
CONTINUOUS
 62
    7
 10
76.626326298552897
 20
108.05372180166536
 11
76.623376237024559
 21
108.04980279041993
  0
ARC
  8
_0-6_JISSEN
  6
CONTINUOUS
 62
    7
 10
76.448331380594169
 20
107.58881876982809
 40
1.340962879392062
 50
13.530054987119808
 51
37.006030249868218
  0
ARC
  8
_0-6_JISSEN
  6
CONTINUOUS
 62
    7
 10
82.183009519820644
 20
106.69999915715428
 40
0.2
 50
185.07960785996832
 51
270
  0
LINE
  8
_0-6_JISSEN
  6
CONTINUOUS
 62
    7
 10
82.29999872874717
 20
106.49999915715239
 11
82.183009519820644
 21
106.49999915715429
  0
ARC
  8
_0-6_JISSEN
  6
CONTINUOUS
 62
    7
 10
84.749998728742469
 20
111.09607584459928
 40
1
 50
179.99999999999659
 51
280.24837883441978
  0
ARC
  8
_0-6_JISSEN
  6
CONTINUOUS
 62
    7
 10
98.24999872874497
 20
110.99634672031507
 40
1
 50
280.24837883444633
 51
0.0000000000260296
  0
LINE
  8
_0-6_JISSEN
  6
CONTINUOUS
 62
    7
 10
96.420462693301658
 20
109.64935323682249
 11
98.427914431034253
 21
110.01230098820758
  0
LINE
  8
_0-6_JISSEN
  6
CONTINUOUS
 62
    7
 10
99.249998728745851
 20
110.99634672031507
 11
99.249998728745851
 21
111.49999915715259
  0
LINE
  8
_0-5_SAISEN
  6
CONTINUOUS
 62
    4
 10
74.718772154305469
 20
139.4999991571531
 11
74.593765907489143
 21
143.4999991571525
  0
LINE
  8
_0-6_JISSEN
  6
CONTINUOUS
 62
    7
 10
76.003883953551451
 20
137.4961139323444
 11
75.816253163984044
 21
143.4999991571525
  0
LINE
  8
_0-6_JISSEN
  6
CONTINUOUS
 62
    7
 10
76.999998728743549
 20
136.49999915715199
 11
76.003883953551451
 21
137.4961139323444
  0
LINE
  8
_0-6_JISSEN
  6
CONTINUOUS
 62
    7
 10
76.749998728744458
 20
125.39791385732659
 11
75.134299822513469
 21
125.39791385732659
  0
LINE
  8
_0-6_JISSEN
  6
CONTINUOUS
 62
    7
 10
76.252333811262957
 20
122.89791385732607
 11
76.535914539367468
 21
122.89791385732607
  0
ARC
  8
_0-6_JISSEN
  6
CONTINUOUS
 62
    7
 10
75.999998728744458
 20
122.89791385732659
 40
0.5
 50
0
 51
129.23400442067231
  0
LINE
  8
_0-6_JISSEN
  6
CONTINUOUS
 62
    7
 10
82.249998728743549
 20
136.49999915715279
 11
65.249998728744458
 21
136.4999991571531
  0
LINE
  8
_0-6_JISSEN
  6
CONTINUOUS
 62
    7
 10
67.74999872874497
 20
135.44999915716039
 11
78.999998728744259
 21
135.44999915716039
  0
LINE
  8
_0-6_JISSEN
  6
CONTINUOUS
 62
    7
 10
78.999998728744259
 20
135.9999991571529
 11
67.74999872874497
 21
135.9999991571529
  0
LINE
  8
_0-6_JISSEN
  6
CONTINUOUS
 62
    7
 10
65.249998728744458
 20
130.4999991571531
 11
82.249998728743549
 21
130.49999915715279
  0
LINE
  8
_0-6_JISSEN
  6
CONTINUOUS
 62
    7
 10
78.999998728744259
 20
134.5499991571528
 11
67.74999872874497
 21
134.54999915715018
  0
LINE
  8
_0-6_JISSEN
  6
CONTINUOUS
 62
    7
 10
78.999998728744259
 20
133.04999915714629
 11
67.74999872874497
 21
133.04999915714907
  0
LINE
  8
_0-6_JISSEN
  6
CONTINUOUS
 62
    7
 10
67.74999872874497
 20
133.94999915715229
 11
78.999998728744259
 21
133.94999915715229
  0
LINE
  8
_0-6_JISSEN
  6
CONTINUOUS
 62
    7
 10
78.999998728744259
 20
130.9999991571531
 11
67.74999872874497
 21
130.9999991571531
  0
LINE
  8
_0-6_JISSEN
  6
CONTINUOUS
 62
    7
 10
67.74999872874497
 20
131.54999915715368
 11
78.999998728744259
 21
131.54999915715308
  0
LINE
  8
_0-6_JISSEN
  6
CONTINUOUS
 62
    7
 10
67.74999872874497
 20
132.44999915715229
 11
78.999998728744259
 21
132.44999915715229
  0
LINE
  8
_0-6_JISSEN
  6
CONTINUOUS
 62
    7
 10
75.972510972504352
 20
138.4999991571581
 11
83.499998728744259
 21
138.4999991571581
  0
LINE
  8
_0-6_JISSEN
  6
CONTINUOUS
 62
    7
 10
65.249998728744458
 20
114.19174957871007
 11
79.349998728744453
 21
114.19174957871007
  0
LINE
  8
_0-6_JISSEN
  6
CONTINUOUS
 62
    7
 10
79.349998728744453
 20
113.9917495787102
 11
65.249998728744458
 21
113.9917495787102
  0
LINE
  8
_0-6_JISSEN
  6
CONTINUOUS
 62
    7
 10
65.249998728744458
 20
114.19174957871007
 11
79.349998728744453
 21
114.19174957871007
  0
LINE
  8
_0-6_JISSEN
  6
CONTINUOUS
 62
    7
 10
65.249998728744458
 20
116.89791385732619
 11
80.149998728744464
 21
116.89791385732619
  0
LINE
  8
_0-4_TEXT
  6
CONTINUOUS
 62
    7
 10
80.399998728744464
 20
117.33092655921789
 11
65.249998728744458
 21
117.33092655921789
  0
LINE
  8
_0-6_JISSEN
  6
CONTINUOUS
 62
    7
 10
80.399998728744549
 20
125.89791385732619
 11
76.252333811262844
 21
125.89791385732579
  0
ARC
  8
_0-6_JISSEN
  6
CONTINUOUS
 62
    7
 10
75.999998728744458
 20
122.89791385732659
 40
2.5000000000000089
 50
0
 51
114.33587933313939
  0
LINE
  8
_0-3_SUNPOU
  6
CONTINUOUS
 62
    7
 10
80.400082166760768
 20
129.89791385732619
 11
65.249998728744458
 21
129.89791385732619
  0
LINE
  8
_0-6_JISSEN
  6
CONTINUOUS
 62
    7
 10
68.923990334444056
 20
116.89791385732619
 11
68.923990334444056
 21
114.19174957871007
  0
LINE
  8
_0-5_SAISEN
  6
CONTINUOUS
 62
    4
 10
66.949998728744362
 20
116.89791385732607
 11
66.949998728744362
 21
115.54169967453328
  0
LINE
  8
_0-6_JISSEN
  6
CONTINUOUS
 62
    7
 10
67.249998728744458
 20
115.84169967453317
 11
67.249998728744458
 21
116.89791385732619
  0
LINE
  8
_0-6_JISSEN
  6
CONTINUOUS
 62
    7
 10
67.249998728744458
 20
115.84169967453317
 11
66.749998728744458
 21
115.34169967453317
  0
LINE
  8
_0-4_TEXT
  6
CONTINUOUS
 62
    7
 10
67.249998728744458
 20
116.3529466723779
 11
65.249998728744458
 21
116.3529466723779
  0
LINE
  8
_0-6_JISSEN
  6
CONTINUOUS
 62
    7
 10
66.749998728744458
 20
115.34169967453317
 11
66.749998728744458
 21
114.19174957871007
  0
LINE
  8
_0-4_TEXT
  6
CONTINUOUS
 62
    7
 10
66.749998728744458
 20
115.8529466723779
 11
65.249998728744458
 21
115.8529466723777
  0
LINE
  8
_0-6_JISSEN
  6
CONTINUOUS
 62
    7
 10
73.512516544559759
 20
116.89791385732619
 11
73.512516544559759
 21
114.19174957871019
  0
LINE
  8
_0-6_JISSEN
  6
CONTINUOUS
 62
    7
 10
71.639998728744359
 20
114.19174957871007
 11
71.639998728744359
 21
116.89791385732619
  0
LINE
  8
_0-6_JISSEN
  6
CONTINUOUS
 62
    7
 10
70.323990334444062
 20
116.89791385732619
 11
70.323990334444147
 21
114.19174957871007
  0
ARC
  8
_0-6_JISSEN
  6
CONTINUOUS
 62
    7
 10
76.252333811262957
 20
124.39791385732619
 40
1.5
 50
90
 51
270
  0
LINE
  8
_0-6_JISSEN
  6
CONTINUOUS
 62
    7
 10
75.47521710681886
 20
123.11491361271428
 11
75.683754172526449
 21
123.28519848219878
  0
LINE
  8
_0-6_JISSEN
  6
CONTINUOUS
 62
    7
 10
67.74999872874497
 20
136.4999991571529
 11
67.74999872874497
 21
130.49999915715298
  0
LINE
  8
_0-6_JISSEN
  6
CONTINUOUS
 62
    7
 10
76.003883953551451
 20
137.4961139323444
 11
65.249998728744458
 21
137.49611393234539
  0
LINE
  8
_0-5_SAISEN
  6
CONTINUOUS
 62
    4
 10
76.003883953551451
 20
137.4961139323444
 11
74.718772154305469
 21
139.4999991571531
  0
LINE
  8
_0-6_JISSEN
  6
CONTINUOUS
 62
    7
 10
82.899998728741849
 20
137.89999915715339
 11
82.899998728744748
 21
122.4999991571581
  0
LINE
  8
_0-6_JISSEN
  6
CONTINUOUS
 62
    7
 10
80.399998728744549
 20
130.4999991571535
 11
80.399998728744549
 21
125.89791385732619
  0
LINE
  8
_0-6_JISSEN
  6
CONTINUOUS
 62
    7
 10
82.899998728744748
 20
122.49999915715759
 11
80.499998728745169
 21
120.09999915715889
  0
LINE
  8
_0-6_JISSEN
  6
CONTINUOUS
 62
    7
 10
80.399998728744464
 20
117.33092655921789
 11
80.399998728744464
 21
122.89791385732607
  0
LINE
  8
_0-6_JISSEN
  6
CONTINUOUS
 62
    7
 10
79.349998728744453
 20
114.19174957871007
 11
79.349998728744453
 21
113.99174957871008
  0
LINE
  8
_0-6_JISSEN
  6
CONTINUOUS
 62
    7
 10
79.349998728744453
 20
114.19174957871007
 11
79.349998728744453
 21
113.99174957871008
  0
ARC
  8
_0-6_JISSEN
  6
CONTINUOUS
 62
    7
 10
80.549998728744555
 20
113.09174957871008
 40
1.5
 50
143.13010235416243
 51
180.00000000000003
  0
LINE
  8
_0-6_JISSEN
  6
CONTINUOUS
 62
    7
 10
80.99999872874605
 20
117.74999915717268
 11
80.499998728745169
 21
117.74999915717268
  0
LINE
  8
_0-6_JISSEN
  6
CONTINUOUS
 62
    7
 10
80.149998728744464
 20
116.89791385732619
 11
80.399998728744464
 21
117.33092655921789
  0
LINE
  8
_0-6_JISSEN
  6
CONTINUOUS
 62
    7
 10
80.499998728745169
 20
120.09999915715889
 11
80.499998728745169
 21
117.74999915715767
  0
LINE
  8
_0-6_JISSEN
  6
CONTINUOUS
 62
    7
 10
76.499998728744544
 20
122.89791385732607
 11
80.399998728744464
 21
122.89791385732607
  0
LINE
  8
_0-6_JISSEN
  6
CONTINUOUS
 62
    7
 10
76.749998728744458
 20
125.89791385732579
 11
76.749998728744458
 21
125.39791385732659
  0
LINE
  8
_0-6_JISSEN
  6
CONTINUOUS
 62
    7
 10
81.499998728744345
 20
135.44999915716039
 11
81.499998728744345
 21
135.99999915716089
  0
LINE
  8
_0-6_JISSEN
  6
CONTINUOUS
 62
    7
 10
82.749998728743549
 20
135.44999915715218
 11
82.749998728743549
 21
135.99999915715279
  0
LINE
  8
_0-6_JISSEN
  6
CONTINUOUS
 62
    7
 10
78.999998728750853
 20
135.9999991571529
 11
78.999998728744458
 21
135.44999915716048
  0
LINE
  8
_0-6_JISSEN
  6
CONTINUOUS
 62
    7
 10
80.494083828501545
 20
130.49999915715279
 11
80.494083828501545
 21
136.49999915715279
  0
LINE
  8
_0-6_JISSEN
  6
CONTINUOUS
 62
    7
 10
81.499998728744345
 20
135.44999915716028
 11
82.749998728743549
 21
135.44999915716028
  0
ARC
  8
_0-6_JISSEN
  6
CONTINUOUS
 62
    7
 10
82.937498728743549
 20
133.49999915715259
 40
0.4874999999996627
 50
112.6198649480387
 51
247.38013505195391
  0
LINE
  8
_0-6_JISSEN
  6
CONTINUOUS
 62
    7
 10
82.749998728743549
 20
133.04999915714538
 11
81.499998728744259
 21
133.04999915714569
  0
LINE
  8
_0-6_JISSEN
  6
CONTINUOUS
 62
    7
 10
82.749998728743549
 20
130.99999915715298
 11
81.499998728744259
 21
130.99999915715298
  0
LINE
  8
_0-6_JISSEN
  6
CONTINUOUS
 62
    7
 10
81.499998728744259
 20
132.44999915715218
 11
82.749998728743549
 21
132.44999915715218
  0
LINE
  8
_0-6_JISSEN
  6
CONTINUOUS
 62
    7
 10
81.499998728744259
 20
131.549999157153
 11
82.749998728743549
 21
131.54999915715288
  0
LINE
  8
_0-6_JISSEN
  6
CONTINUOUS
 62
    7
 10
82.249998728743549
 20
130.49999915715279
 11
82.749998728743549
 21
130.9999991571529
  0
ARC
  8
_0-6_JISSEN
  6
CONTINUOUS
 62
    7
 10
82.937498728743549
 20
131.99999915715458
 40
0.4874999999996627
 50
112.6198649480387
 51
247.38013505195391
  0
LINE
  8
_0-6_JISSEN
  6
CONTINUOUS
 62
    7
 10
82.749998728743549
 20
134.54999915715348
 11
81.499998728744259
 21
134.54999915715339
  0
LINE
  8
_0-6_JISSEN
  6
CONTINUOUS
 62
    7
 10
81.499998728744259
 20
133.94999915715218
 11
82.749998728743549
 21
133.94999915715218
  0
ARC
  8
_0-6_JISSEN
  6
CONTINUOUS
 62
    7
 10
82.937498728743549
 20
134.99999915715259
 40
0.4874999999996627
 50
112.6198649480387
 51
247.38013505195391
  0
ARC
  8
_0-6_JISSEN
  6
CONTINUOUS
 62
    7
 10
79.449796533369664
 20
131.99999915716279
 40
0.6362531454111287
 50
134.98712495037344
 51
225.01287504961732
  0
ARC
  8
_0-6_JISSEN
  6
CONTINUOUS
 62
    7
 10
81.949796533369664
 20
131.99999915716268
 40
0.6362531454111287
 50
134.98712495037344
 51
225.01287504961732
  0
LINE
  8
_0-6_JISSEN
  6
CONTINUOUS
 62
    7
 10
78.599998728744254
 20
130.4999991571531
 11
78.999998728744259
 21
130.99999915716108
  0
LINE
  8
_0-6_JISSEN
  6
CONTINUOUS
 62
    7
 10
78.999998728754349
 20
131.54999915715308
 11
78.999998728744259
 21
130.99999915716108
  0
LINE
  8
_0-6_JISSEN
  6
CONTINUOUS
 62
    7
 10
81.499998728744259
 20
130.99999915716089
 11
81.499998728744259
 21
131.54999915716098
  0
LINE
  8
_0-5_SAISEN
  6
CONTINUOUS
 62
    4
 10
79.899998728744549
 20
130.49999915715338
 11
79.899998728744549
 21
129.89791385732619
  0
LINE
  8
_0-6_JISSEN
  6
CONTINUOUS
 62
    7
 10
79.899998728744549
 20
129.89791385732588
 11
80.399998728744549
 21
129.60923872273119
  0
LINE
  8
_0-6_JISSEN
  6
CONTINUOUS
 62
    7
 10
81.099998728744254
 20
130.49999915715279
 11
81.499998728744259
 21
130.99999915716089
  0
ARC
  8
_0-6_JISSEN
  6
CONTINUOUS
 62
    7
 10
79.449796533369863
 20
133.49999915716089
 40
0.6362531454111287
 50
134.98712495037344
 51
225.01287504961732
  0
LINE
  8
_0-6_JISSEN
  6
CONTINUOUS
 62
    7
 10
78.999998728759266
 20
133.04999915714637
 11
78.999998728744259
 21
132.44999915716249
  0
LINE
  8
_0-6_JISSEN
  6
CONTINUOUS
 62
    7
 10
78.999998728752644
 20
134.5499991571528
 11
78.999998728744458
 21
133.94999915716059
  0
ARC
  8
_0-6_JISSEN
  6
CONTINUOUS
 62
    7
 10
79.449796533369863
 20
134.9999991571608
 40
0.6362531454111287
 50
134.98712495037344
 51
225.01287504961732
  0
LINE
  8
_0-6_JISSEN
  6
CONTINUOUS
 62
    7
 10
81.499998728744259
 20
132.44999915716238
 11
81.499998728744259
 21
133.0499991571611
  0
LINE
  8
_0-6_JISSEN
  6
CONTINUOUS
 62
    7
 10
81.499998728744259
 20
132.4499991571623
 11
81.499998728744259
 21
133.04999915716098
  0
LINE
  8
_0-6_JISSEN
  6
CONTINUOUS
 62
    7
 10
81.499998728744259
 20
133.94999915716039
 11
81.499998728744259
 21
134.54999915716098
  0
ARC
  8
_0-6_JISSEN
  6
CONTINUOUS
 62
    7
 10
81.949796533369863
 20
133.4999991571608
 40
0.6362531454111287
 50
134.98712495037344
 51
225.01287504961732
  0
ARC
  8
_0-6_JISSEN
  6
CONTINUOUS
 62
    7
 10
81.949796533369863
 20
134.99999915716069
 40
0.6362531454111287
 50
134.98712495037344
 51
225.01287504961732
  0
LINE
  8
_0-6_JISSEN
  6
CONTINUOUS
 62
    7
 10
82.749998728743549
 20
130.9999991571529
 11
82.749998728743549
 21
131.54999915715288
  0
LINE
  8
_0-6_JISSEN
  6
CONTINUOUS
 62
    7
 10
82.749998728743549
 20
132.4499991571542
 11
82.749998728743549
 21
133.04999915715288
  0
LINE
  8
_0-6_JISSEN
  6
CONTINUOUS
 62
    7
 10
82.749998728743549
 20
133.94999915715218
 11
82.749998728743549
 21
134.54999915715288
  0
LINE
  8
_0-6_JISSEN
  6
CONTINUOUS
 62
    7
 10
82.749998728743549
 20
135.99999915715279
 11
81.499998728744345
 21
135.99999915715279
  0
LINE
  8
_0-6_JISSEN
  6
CONTINUOUS
 62
    7
 10
82.749998728743549
 20
135.99999915715279
 11
82.249998728743549
 21
136.49999915715279
  0
LINE
  8
_0-6_JISSEN
  6
CONTINUOUS
 62
    7
 10
78.999998728744259
 20
135.99999915716108
 11
78.599998728744367
 21
136.4999991571531
  0
LINE
  8
_0-6_JISSEN
  6
CONTINUOUS
 62
    7
 10
81.499998728744345
 20
135.99999915716089
 11
81.099998728744367
 21
136.49999915715279
  0
LINE
  8
_0-6_JISSEN
  6
CONTINUOUS
 62
    7
 10
83.499998728744259
 20
138.4999991571581
 11
83.749998728744259
 21
138.2499991571581
  0
LINE
  8
_0-6_JISSEN
  6
CONTINUOUS
 62
    7
 10
82.899998728745658
 20
137.89999915715728
 11
83.499998728744259
 21
138.4999991571581
  0
ENDSEC
  0
EOF
