  0
SECTION
  2
HEADER
  9
$ACADVER
  1
AC1009
  9
$INSBASE
 10
0
 20
0
 30
0
  9
$EXTMIN
 10
0
 20
0
  9
$EXTMAX
 10
420.5
 20
297
  9
$LIMMIN
 10
0
 20
0
  9
$LIMMAX
 10
420.5
 20
297
  9
$LTSCALE
 40
0.5
  0
ENDSEC
  0
SECTION
  2
TABLES
  0
TABLE
  2
LTYPE
 70
     9
  0
LTYPE
  2
CONTINUOUS
 70
    64
  3
実線
 72
    65
 73
     0
 40
0.0
  0
LTYPE
  2
DASHED1
 70
    64
  3
--  --  --  --  --  --  --  --  
 72
    65
 73
     2
 40
2.5
 49
1.25
 49
-1.25
  0
LTYPE
  2
DASHED2
 70
    64
  3
----    ----    ----    ----    
 72
    65
 73
     2
 40
5.0
 49
2.5
 49
-2.5
  0
LTYPE
  2
DASHED3
 70
    64
  3
------  ------  ------  ------  
 72
    65
 73
     2
 40
5.0
 49
3.75
 49
-1.25
  0
LTYPE
  2
CENTER1
 70
    64
  3
----- - ----- - ----- - ----- - 
 72
    65
 73
     4
 40
10.0
 49
6.25
 49
-1.25
 49
1.25
 49
-1.25
  0
LTYPE
  2
CENTER2
 70
    64
  3
----------  --  ----------  --  
 72
    65
 73
     4
 40
20.0
 49
12.5
 49
-2.5
 49
2.5
 49
-2.5
  0
LTYPE
  2
PHANTOM1
 70
    64
  3
--- - - --- - - --- - - --- - - 
 72
    65
 73
     6
 40
10.0
 49
3.25
 49
-1.25
 49
1.25
 49
-1.25
 49
1.25
 49
-1.25
  0
LTYPE
  2
PHANTOM2
 70
    64
  3
--------  -  -  --------  -  -  
 72
    65
 73
     6
 40
20.0
 49
10.0
 49
-2.5
 49
1.25
 49
-2.5
 49
1.25
 49
-2.5
  0
LTYPE
  2
DOT
 70
    64
  3
-   -   -   -   -   -   -   -   
 72
    65
 73
     2
 40
2.5
 49
0.625
 49
-1.875
  0
LTYPE
  2
DUMMY
 70
    64
  3
ダミー
 72
    65
 73
     0
 40
0.0
  0
LTYPE
  2
RAND1
 70
    64
  3
ランダム線1
 72
    65
 73
     4
 40
10.0
 49
1.0
 49
-2.0
 49
3.0
 49
-4.0
  0
LTYPE
  2
RAND2
 70
    64
  3
ランダム線2
 72
    65
 73
     4
 40
14.0
 49
2.0
 49
-3.0
 49
4.0
 49
-5.0
  0
LTYPE
  2
RAND3
 70
    64
  3
ランダム線3
 72
    65
 73
     4
 40
18.0
 49
3.0
 49
-4.0
 49
5.0
 49
-6.0
  0
LTYPE
  2
RAND4
 70
    64
  3
ランダム線4
 72
    65
 73
     4
 40
22.0
 49
4.0
 49
-5.0
 49
6.0
 49
-7.0
  0
LTYPE
  2
RAND5
 70
    64
  3
ランダム線5
 72
    65
 73
     4
 40
26.0
 49
5.0
 49
-6.0
 49
7.0
 49
-8.0
  0
LTYPE
  2
LONG1
 70
    64
  3
----------  --  ----------  --  
 72
    65
 73
     4
 40
40.0
 49
32.5
 49
-2.5
 49
2.5
 49
-2.5
  0
LTYPE
  2
LONG2
 70
    64
  3
--------  -  -  --------  -  -  
 72
    65
 73
     6
 40
40.0
 49
30.0
 49
-2.5
 49
1.25
 49
-2.5
 49
1.25
 49
-2.5
  0
LTYPE
  2
LONG3
 70
    64
  3
+++++++++++++++..+++++++++++++++
 72
    65
 73
     2
 40
40.0
 49
37.5
 49
-2.5
  0
LTYPE
  2
LONG4
 70
    64
  3
+++++++++++++++..+++++++++++++++
 72
    65
 73
     2
 40
80.0
 49
75.0
 49
-5.0
  0
LTYPE
  2
LONG5
 70
    64
  3
----------  --  ----------  --  
 72
    65
 73
     4
 40
60.0
 49
37.5
 49
-7.5
 49
7.5
 49
-7.5
  0
LTYPE
  2
dashed
 70
   64
  3
-------   -------------   ------
 72
   65
 73
    2
 40
7.5
 49
6
 49
-1.5
  0
LTYPE
  2
dashed_spaced
 70
   64
  3
----        --------        ----
 72
   65
 73
    2
 40
12
 49
6
 49
-6
  0
LTYPE
  2
long_dashed_dotted
 70
   64
  3
------------- --- --------------
 72
   65
 73
    4
 40
15.25
 49
12
 49
-1.5
 49
0.25
 49
-1.5
  0
LTYPE
  2
long_dashed_double-dotted
 70
   64
  3
----------- --- --- ------------
 72
   65
 73
    6
 40
17
 49
12
 49
-1.5
 49
0.25
 49
-1.5
 49
0.25
 49
-1.5
  0
LTYPE
  2
long_dashed_triplicate-dotted
 70
   64
  3
--------- --- --- --- ----------
 72
   65
 73
    8
 40
18.75
 49
12
 49
-1.5
 49
0.25
 49
-1.5
 49
0.25
 49
-1.5
 49
0.25
 49
-1.5
  0
LTYPE
  2
dotted
 70
   64
  3
   -       -       -       -    
 72
   65
 73
    2
 40
1.75
 49
0.25
 49
-1.5
  0
LTYPE
  2
chain
 70
   64
  3
-------------- -- --------------
 72
   65
 73
    4
 40
18.5
 49
12
 49
-1.5
 49
3.5
 49
-1.5
  0
LTYPE
  2
chain_double_dash
 70
   64
  3
------------ -- -- -------------
 72
   65
 73
    6
 40
23.5
 49
12
 49
-1.5
 49
3.5
 49
-1.5
 49
3.5
 49
-1.5
  0
LTYPE
  2
dashed_dotted
 70
   64
  3
-----------     -     ----------
 72
   65
 73
    4
 40
9.25
 49
6
 49
-1.5
 49
0.25
 49
-1.5
  0
LTYPE
  2
double-dashed_dotted
 70
   64
  3
------   -----------   -   -----
 72
   65
 73
    6
 40
16.75
 49
6
 49
-1.5
 49
6
 49
-1.5
 49
0.25
 49
-1.5
  0
LTYPE
  2
dashed_double-dotted
 70
   64
  3
---------    -    -    ---------
 72
   65
 73
    6
 40
11
 49
6
 49
-1.5
 49
0.25
 49
-1.5
 49
0.25
 49
-1.5
  0
LTYPE
  2
double-dashed_double-dotted
 70
   64
  3
-----   ---------   -   -   ----
 72
   65
 73
    8
 40
18.5
 49
6
 49
-1.5
 49
6
 49
-1.5
 49
0.25
 49
-1.5
 49
0.25
 49
-1.5
  0
LTYPE
  2
dashed_triplicate-dotted
 70
   64
  3
-------    -    -    -    ------
 72
   65
 73
    8
 40
12.75
 49
6
 49
-1.5
 49
0.25
 49
-1.5
 49
0.25
 49
-1.5
 49
0.25
 49
-1.5
  0
LTYPE
  2
double-dashed_triplicate-dotted
 70
   64
  3
-----  ---------  -  -  -  -----
 72
   65
 73
   10
 40
20.25
 49
6
 49
-1.5
 49
6
 49
-1.5
 49
0.25
 49
-1.5
 49
0.25
 49
-1.5
 49
0.25
 49
-1.5
  0
LTYPE
  2
undefined
 70
   64
  3
--------------------------------
 72
   65
 73
    0
 40
0
  0
LTYPE
  2
CENTER
 70
   64
  3
----------    ----    ----------
 72
   65
 73
    4
 40
2
 49
1.25
 49
-0.25
 49
0.25
 49
-0.25
  0
LTYPE
  2
HIDDEN
 70
   64
  3
------     -----------     -----
 72
   65
 73
    2
 40
0.375
 49
0.25
 49
-0.125
  0
LTYPE
  2
DASHED
 70
   64
  3
------     -----------     -----
 72
   65
 73
    2
 40
0.75
 49
0.5
 49
-0.25
  0
LTYPE
  2
PHANTOM
 70
   64
  3
---------   ---   ---   --------
 72
   65
 73
    6
 40
2.5
 49
1.25
 49
-0.25
 49
0.25
 49
-0.25
 49
0.25
 49
-0.25
  0
ENDTAB
  0
TABLE
  2
STYLE
  5
3
100
AcDbSymbolTable
 70
     1
  0
STYLE
  5
10
100
AcDbSymbolTableRecord
100
AcDbTextStyleTableRecord
  2
STANDARD
 70
     0
 40
0.0
 41
1.0
 50
0.0
 71
     0
 42
0.2
  3
txt
  4
bigfont.shx
  0
STYLE
  5
26
100
AcDbSymbolTableRecord
100
AcDbTextStyleTableRecord
  2
TATEGAKI
 70
    68
 40
0.0
 41
1.0
 50
0.0
 71
     0
 42
1.0
  3
txt
  4
bigfont.shx
  0
ENDTAB
  0
TABLE
  2
LAYER
 70
   10
  0
LAYER
  2
_0-1_ITTEN
 70
   64
 62
    7
  6
CONTINUOUS
  0
LAYER
  2
_0-2_HATCH
 70
   64
 62
    7
  6
CONTINUOUS
  0
LAYER
  2
_0-3_SUNPOU
 70
   64
 62
    7
  6
CONTINUOUS
  0
LAYER
  2
_0-4_TEXT
 70
   64
 62
    7
  6
CONTINUOUS
  0
LAYER
  2
_0-5_SAISEN
 70
   64
 62
    7
  6
CONTINUOUS
  0
LAYER
  2
_0-6_JISSEN
 70
   64
 62
    7
  6
CONTINUOUS
  0
LAYER
  2
_0-8_WAKU
 70
   64
 62
    7
  6
CONTINUOUS
  0
LAYER
  2
_0-d_WHITE_CONTINUOUS
 70
   64
 62
    7
  6
CONTINUOUS
  0
LAYER
  2
_0-e_STRING_WHITE
 70
   64
 62
    7
  6
CONTINUOUS
  0
LAYER
  2
ADD_LINE
 70
   64
 62
    7
  6
CONTINUOUS
  0
ENDTAB
  0
ENDSEC
  0
SECTION
  2
BLOCKS
  0
ENDSEC
  0
SECTION
  2
ENTITIES
  0
LINE
  8
_0-8_WAKU
  6
CONTINUOUS
 62
    5
 10
-62.750001271255144
 20
-32.500000122847013
 11
483.24999872874486
 21
-32.500000122847013
  0
LINE
  8
_0-8_WAKU
  6
CONTINUOUS
 62
    5
 10
483.24999872874486
 20
-32.500000122847013
 11
483.24999872874486
 21
329.49999843715295
  0
LINE
  8
_0-8_WAKU
  6
CONTINUOUS
 62
    5
 10
483.24999872874486
 20
329.49999843715295
 11
-62.750001271255144
 21
329.49999843715295
  0
LINE
  8
_0-8_WAKU
  6
CONTINUOUS
 62
    5
 10
-62.750001271255144
 20
329.49999843715295
 11
-62.750001271255144
 21
-32.500000122847013
  0
LINE
  8
_0-1_ITTEN
  6
CENTER
 62
    1
 10
65.249998728744856
 20
284.99999915715262
 11
65.249998728744856
 21
77.249679310167991
  0
LINE
  8
_0-6_JISSEN
  6
CONTINUOUS
 62
    7
 10
296.09999872874266
 20
106.49999915715469
 11
296.19999872874263
 21
106.4999991571527
  0
LINE
  8
_0-6_JISSEN
  6
CONTINUOUS
 62
    7
 10
330.29999872874737
 20
106.4999991571527
 11
330.39999872874728
 21
106.49999915715469
  0
LINE
  8
_0-6_JISSEN
  6
CONTINUOUS
 62
    7
 10
295.59999872874408
 20
137.89999915715759
 11
294.99999872874554
 21
138.49999915715838
  0
LINE
  8
_0-6_JISSEN
  6
CONTINUOUS
 62
    7
 10
294.99999872874554
 20
138.49999915715838
 11
294.74999872874554
 21
138.24999915715838
  0
LINE
  8
_0-6_JISSEN
  6
CONTINUOUS
 62
    7
 10
296.99999872874548
 20
135.99999915716108
 11
297.39999872874535
 21
136.49999915715318
  0
LINE
  8
_0-6_JISSEN
  6
CONTINUOUS
 62
    7
 10
299.49999872874554
 20
135.9999991571614
 11
299.89999872874546
 21
136.49999915715338
  0
LINE
  8
_0-6_JISSEN
  6
CONTINUOUS
 62
    7
 10
295.74999872874628
 20
135.99999915715318
 11
296.24999872874628
 21
136.49999915715318
  0
LINE
  8
_0-6_JISSEN
  6
CONTINUOUS
 62
    7
 10
295.74999872874628
 20
135.99999915715318
 11
296.99999872874548
 21
135.99999915715318
  0
LINE
  8
_0-6_JISSEN
  6
CONTINUOUS
 62
    7
 10
295.74999872874628
 20
133.94999915715249
 11
295.74999872874628
 21
134.54999915715308
  0
LINE
  8
_0-6_JISSEN
  6
CONTINUOUS
 62
    7
 10
295.74999872874628
 20
132.44999915715459
 11
295.74999872874628
 21
133.04999915715308
  0
LINE
  8
_0-6_JISSEN
  6
CONTINUOUS
 62
    7
 10
295.74999872874628
 20
130.99999915715318
 11
295.74999872874628
 21
131.54999915715308
  0
ARC
  8
_0-6_JISSEN
  6
CONTINUOUS
 62
    7
 10
296.55020092411996
 20
134.99999915716089
 40
0.6362531454111287
 50
314.98712495038268
 51
45.01287504962653
  0
ARC
  8
_0-6_JISSEN
  6
CONTINUOUS
 62
    7
 10
296.55020092411996
 20
133.49999915716108
 40
0.6362531454111287
 50
314.98712495038268
 51
45.01287504962653
  0
LINE
  8
_0-6_JISSEN
  6
CONTINUOUS
 62
    7
 10
296.99999872874554
 20
133.94999915716068
 11
296.99999872874554
 21
134.5499991571613
  0
LINE
  8
_0-6_JISSEN
  6
CONTINUOUS
 62
    7
 10
296.99999872874554
 20
132.44999915716249
 11
296.99999872874554
 21
133.0499991571613
  0
LINE
  8
_0-6_JISSEN
  6
CONTINUOUS
 62
    7
 10
296.99999872874554
 20
132.44999915716278
 11
296.99999872874554
 21
133.0499991571613
  0
ARC
  8
_0-6_JISSEN
  6
CONTINUOUS
 62
    7
 10
299.05020092411985
 20
134.99999915716108
 40
0.6362531454111287
 50
314.98712495038268
 51
45.01287504962653
  0
LINE
  8
_0-6_JISSEN
  6
CONTINUOUS
 62
    7
 10
299.49999872873718
 20
134.54999915715308
 11
299.49999872874537
 21
133.94999915716099
  0
LINE
  8
_0-6_JISSEN
  6
CONTINUOUS
 62
    7
 10
299.49999872873053
 20
133.0499991571468
 11
299.49999872874554
 21
132.44999915716278
  0
ARC
  8
_0-6_JISSEN
  6
CONTINUOUS
 62
    7
 10
299.05020092411985
 20
133.49999915716108
 40
0.6362531454111287
 50
314.98712495038268
 51
45.01287504962653
  0
LINE
  8
_0-6_JISSEN
  6
CONTINUOUS
 62
    7
 10
297.39999872874557
 20
130.49999915715318
 11
296.99999872874554
 21
130.99999915716108
  0
LINE
  8
_0-6_JISSEN
  6
CONTINUOUS
 62
    7
 10
298.59999872874528
 20
129.89791385732619
 11
298.09999872874528
 21
129.60923872273139
  0
LINE
  8
_0-5_SAISEN
  6
CONTINUOUS
 62
    4
 10
298.59999872874528
 20
130.49999915715358
 11
298.59999872874528
 21
129.89791385732639
  0
LINE
  8
_0-6_JISSEN
  6
CONTINUOUS
 62
    7
 10
296.99999872874554
 20
130.99999915716108
 11
296.99999872874554
 21
131.5499991571613
  0
LINE
  8
_0-6_JISSEN
  6
CONTINUOUS
 62
    7
 10
299.49999872873548
 20
131.54999915715339
 11
299.49999872874554
 21
130.9999991571614
  0
LINE
  8
_0-6_JISSEN
  6
CONTINUOUS
 62
    7
 10
299.89999872874557
 20
130.49999915715338
 11
299.49999872874554
 21
130.9999991571614
  0
ARC
  8
_0-6_JISSEN
  6
CONTINUOUS
 62
    7
 10
296.55020092412013
 20
131.99999915716299
 40
0.6362531454111287
 50
314.98712495038268
 51
45.01287504962653
  0
ARC
  8
_0-6_JISSEN
  6
CONTINUOUS
 62
    7
 10
299.05020092412013
 20
131.99999915716319
 40
0.6362531454111287
 50
314.98712495038268
 51
45.01287504962653
  0
ARC
  8
_0-6_JISSEN
  6
CONTINUOUS
 62
    7
 10
295.56249872874628
 20
134.99999915715298
 40
0.4874999999996627
 50
292.61986494804597
 51
67.380135051961219
  0
LINE
  8
_0-6_JISSEN
  6
CONTINUOUS
 62
    7
 10
296.99999872874554
 20
133.94999915715249
 11
295.74999872874628
 21
133.94999915715249
  0
LINE
  8
_0-6_JISSEN
  6
CONTINUOUS
 62
    7
 10
295.74999872874628
 20
134.54999915715379
 11
296.99999872874554
 21
134.54999915715348
  0
ARC
  8
_0-6_JISSEN
  6
CONTINUOUS
 62
    7
 10
295.56249872874628
 20
131.99999915715497
 40
0.4874999999996627
 50
292.61986494804597
 51
67.380135051961219
  0
LINE
  8
_0-6_JISSEN
  6
CONTINUOUS
 62
    7
 10
296.24999872874628
 20
130.49999915715318
 11
295.74999872874628
 21
130.99999915715318
  0
LINE
  8
_0-6_JISSEN
  6
CONTINUOUS
 62
    7
 10
296.99999872874554
 20
131.54999915715339
 11
295.74999872874628
 21
131.54999915715308
  0
LINE
  8
_0-6_JISSEN
  6
CONTINUOUS
 62
    7
 10
296.99999872874554
 20
132.44999915715249
 11
295.74999872874628
 21
132.44999915715249
  0
LINE
  8
_0-6_JISSEN
  6
CONTINUOUS
 62
    7
 10
295.74999872874628
 20
130.99999915715318
 11
296.99999872874554
 21
130.99999915715318
  0
LINE
  8
_0-6_JISSEN
  6
CONTINUOUS
 62
    7
 10
295.74999872874628
 20
133.04999915714558
 11
296.99999872874554
 21
133.04999915714609
  0
ARC
  8
_0-6_JISSEN
  6
CONTINUOUS
 62
    7
 10
295.56249872874628
 20
133.4999991571529
 40
0.4874999999996627
 50
292.61986494804597
 51
67.380135051961219
  0
LINE
  8
_0-6_JISSEN
  6
CONTINUOUS
 62
    7
 10
296.99999872874548
 20
135.44999915716048
 11
295.74999872874628
 21
135.44999915716048
  0
LINE
  8
_0-6_JISSEN
  6
CONTINUOUS
 62
    7
 10
298.00591362898825
 20
130.49999915715318
 11
298.00591362898825
 21
136.49999915715318
  0
LINE
  8
_0-6_JISSEN
  6
CONTINUOUS
 62
    7
 10
299.49999872873894
 20
135.99999915715318
 11
299.49999872874537
 21
135.44999915716068
  0
LINE
  8
_0-6_JISSEN
  6
CONTINUOUS
 62
    7
 10
295.74999872874628
 20
135.44999915715249
 11
295.74999872874628
 21
135.99999915715318
  0
LINE
  8
_0-6_JISSEN
  6
CONTINUOUS
 62
    7
 10
296.99999872874548
 20
135.44999915716068
 11
296.99999872874548
 21
135.99999915716108
  0
LINE
  8
_0-6_JISSEN
  6
CONTINUOUS
 62
    7
 10
301.74999872874537
 20
125.89791385732607
 11
301.74999872874537
 21
125.3979138573269
  0
LINE
  8
_0-6_JISSEN
  6
CONTINUOUS
 62
    7
 10
301.99999872874514
 20
122.89791385732639
 11
298.09999872874545
 21
122.89791385732639
  0
LINE
  8
_0-6_JISSEN
  6
CONTINUOUS
 62
    7
 10
297.99999872874463
 20
120.09999915715917
 11
297.99999872874463
 21
117.74999915715787
  0
LINE
  8
_0-6_JISSEN
  6
CONTINUOUS
 62
    7
 10
298.34999872874533
 20
116.89791385732639
 11
298.09999872874545
 21
117.33092655921809
  0
LINE
  8
_0-6_JISSEN
  6
CONTINUOUS
 62
    7
 10
297.49999872874366
 20
117.74999915717299
 11
297.99999872874463
 21
117.74999915717299
  0
ARC
  8
_0-6_JISSEN
  6
CONTINUOUS
 62
    7
 10
297.94999872874524
 20
113.09174957871048
 40
1.5
 50
0.000000000000007
 51
36.869897645837511
  0
LINE
  8
_0-6_JISSEN
  6
CONTINUOUS
 62
    7
 10
299.14999872874535
 20
114.19174957871039
 11
299.14999872874535
 21
113.9917495787104
  0
LINE
  8
_0-6_JISSEN
  6
CONTINUOUS
 62
    7
 10
299.14999872874535
 20
114.19174957871039
 11
299.14999872874535
 21
113.9917495787104
  0
LINE
  8
_0-6_JISSEN
  6
CONTINUOUS
 62
    7
 10
298.09999872874545
 20
117.33092655921809
 11
298.09999872874545
 21
122.89791385732639
  0
LINE
  8
_0-6_JISSEN
  6
CONTINUOUS
 62
    7
 10
295.59999872874494
 20
122.49999915715779
 11
297.99999872874463
 21
120.09999915715917
  0
LINE
  8
_0-6_JISSEN
  6
CONTINUOUS
 62
    7
 10
298.09999872874528
 20
130.49999915715378
 11
298.09999872874528
 21
125.89791385732639
  0
LINE
  8
_0-6_JISSEN
  6
CONTINUOUS
 62
    7
 10
295.59999872874795
 20
137.8999991571537
 11
295.59999872874494
 21
122.49999915715838
  0
LINE
  8
_0-5_SAISEN
  6
CONTINUOUS
 62
    4
 10
302.49611350393837
 20
137.49611393234468
 11
303.78122530318427
 21
139.49999915715338
  0
LINE
  8
_0-6_JISSEN
  6
CONTINUOUS
 62
    7
 10
302.55873804668948
 20
139.49999915715318
 11
323.94125941080046
 21
139.49999915715378
  0
LINE
  8
_0-6_JISSEN
  6
CONTINUOUS
 62
    7
 10
302.49611350393837
 20
137.49611393234468
 11
313.24999872874537
 21
137.49611393234579
  0
LINE
  8
_0-6_JISSEN
  6
CONTINUOUS
 62
    7
 10
310.74999872874486
 20
136.49999915715318
 11
310.74999872874486
 21
130.49999915715318
  0
LINE
  8
_0-6_JISSEN
  6
CONTINUOUS
 62
    7
 10
303.02478035067105
 20
123.11491361271459
 11
302.81624328496338
 21
123.28519848219909
  0
ARC
  8
_0-6_JISSEN
  6
CONTINUOUS
 62
    7
 10
302.24766364622684
 20
124.3979138573265
 40
1.5
 50
270
 51
90
  0
LINE
  8
_0-6_JISSEN
  6
CONTINUOUS
 62
    7
 10
308.17600712304568
 20
116.89791385732639
 11
308.17600712304568
 21
114.19174957871039
  0
LINE
  8
_0-6_JISSEN
  6
CONTINUOUS
 62
    7
 10
306.85999872874544
 20
114.19174957871039
 11
306.85999872874544
 21
116.89791385732639
  0
LINE
  8
_0-6_JISSEN
  6
CONTINUOUS
 62
    7
 10
304.98748091293004
 20
116.89791385732639
 11
304.98748091293004
 21
114.1917495787105
  0
LINE
  8
_0-4_TEXT
  6
CONTINUOUS
 62
    7
 10
311.74999872874525
 20
115.8529466723781
 11
313.24999872874537
 21
115.85294667237798
  0
LINE
  8
_0-6_JISSEN
  6
CONTINUOUS
 62
    7
 10
311.74999872874525
 20
115.34169967453349
 11
311.74999872874525
 21
114.19174957871039
  0
LINE
  8
_0-4_TEXT
  6
CONTINUOUS
 62
    7
 10
311.24999872874537
 20
116.35294667237818
 11
313.24999872874537
 21
116.35294667237818
  0
LINE
  8
_0-6_JISSEN
  6
CONTINUOUS
 62
    7
 10
311.24999872874537
 20
115.84169967453349
 11
311.74999872874525
 21
115.34169967453349
  0
LINE
  8
_0-6_JISSEN
  6
CONTINUOUS
 62
    7
 10
311.24999872874537
 20
115.84169967453349
 11
311.24999872874537
 21
116.89791385732639
  0
LINE
  8
_0-5_SAISEN
  6
CONTINUOUS
 62
    4
 10
311.54999872874538
 20
116.89791385732639
 11
311.54999872874538
 21
115.54169967453348
  0
LINE
  8
_0-6_JISSEN
  6
CONTINUOUS
 62
    7
 10
309.57600712304577
 20
116.89791385732639
 11
309.57600712304577
 21
114.19174957871039
  0
LINE
  8
_0-3_SUNPOU
  6
CONTINUOUS
 62
    7
 10
298.09991529072903
 20
129.89791385732639
 11
313.24999872874537
 21
129.89791385732639
  0
ARC
  8
_0-6_JISSEN
  6
CONTINUOUS
 62
    7
 10
302.49999872874537
 20
122.8979138573269
 40
2.5000000000000089
 50
65.664120666860626
 51
180
  0
LINE
  8
_0-6_JISSEN
  6
CONTINUOUS
 62
    7
 10
298.09999872874528
 20
125.89791385732639
 11
302.24766364622707
 21
125.89791385732607
  0
LINE
  8
_0-4_TEXT
  6
CONTINUOUS
 62
    7
 10
298.09999872874545
 20
117.33092655921809
 11
313.24999872874537
 21
117.33092655921809
  0
LINE
  8
_0-6_JISSEN
  6
CONTINUOUS
 62
    7
 10
313.24999872874537
 20
116.89791385732639
 11
298.34999872874533
 21
116.89791385732639
  0
LINE
  8
_0-6_JISSEN
  6
CONTINUOUS
 62
    7
 10
313.24999872874537
 20
114.19174957871039
 11
299.14999872874535
 21
114.19174957871039
  0
LINE
  8
_0-6_JISSEN
  6
CONTINUOUS
 62
    7
 10
299.14999872874535
 20
113.99174957871048
 11
313.24999872874537
 21
113.99174957871048
  0
LINE
  8
_0-6_JISSEN
  6
CONTINUOUS
 62
    7
 10
313.24999872874537
 20
114.19174957871039
 11
299.14999872874535
 21
114.19174957871039
  0
LINE
  8
_0-6_JISSEN
  6
CONTINUOUS
 62
    7
 10
302.52748648498545
 20
138.49999915715838
 11
294.99999872874554
 21
138.49999915715838
  0
LINE
  8
_0-6_JISSEN
  6
CONTINUOUS
 62
    7
 10
310.74999872874486
 20
132.44999915715249
 11
299.49999872874554
 21
132.44999915715249
  0
LINE
  8
_0-6_JISSEN
  6
CONTINUOUS
 62
    7
 10
310.74999872874486
 20
131.54999915715408
 11
299.49999872874554
 21
131.54999915715339
  0
LINE
  8
_0-6_JISSEN
  6
CONTINUOUS
 62
    7
 10
299.49999872874554
 20
130.99999915715338
 11
310.74999872874486
 21
130.99999915715338
  0
LINE
  8
_0-6_JISSEN
  6
CONTINUOUS
 62
    7
 10
310.74999872874486
 20
133.94999915715249
 11
299.49999872874554
 21
133.94999915715249
  0
LINE
  8
_0-6_JISSEN
  6
CONTINUOUS
 62
    7
 10
299.49999872874554
 20
133.04999915714649
 11
310.74999872874486
 21
133.0499991571493
  0
LINE
  8
_0-6_JISSEN
  6
CONTINUOUS
 62
    7
 10
299.49999872874554
 20
134.54999915715308
 11
310.74999872874486
 21
134.54999915715038
  0
LINE
  8
_0-6_JISSEN
  6
CONTINUOUS
 62
    7
 10
313.24999872874537
 20
130.49999915715338
 11
296.24999872874628
 21
130.49999915715318
  0
LINE
  8
_0-6_JISSEN
  6
CONTINUOUS
 62
    7
 10
299.49999872874554
 20
135.99999915715318
 11
310.74999872874486
 21
135.99999915715318
  0
LINE
  8
_0-6_JISSEN
  6
CONTINUOUS
 62
    7
 10
310.74999872874486
 20
135.44999915716068
 11
299.49999872874554
 21
135.44999915716068
  0
LINE
  8
_0-6_JISSEN
  6
CONTINUOUS
 62
    7
 10
296.24999872874628
 20
136.49999915715318
 11
313.24999872874537
 21
136.49999915715338
  0
ARC
  8
_0-6_JISSEN
  6
CONTINUOUS
 62
    7
 10
302.49999872874537
 20
122.8979138573269
 40
0.5
 50
50.765995579327651
 51
180
  0
LINE
  8
_0-6_JISSEN
  6
CONTINUOUS
 62
    7
 10
302.24766364622684
 20
122.89791385732639
 11
301.96408291812224
 21
122.89791385732639
  0
LINE
  8
_0-6_JISSEN
  6
CONTINUOUS
 62
    7
 10
301.74999872874537
 20
125.3979138573269
 11
303.36569763497647
 21
125.3979138573269
  0
LINE
  8
_0-6_JISSEN
  6
CONTINUOUS
 62
    7
 10
301.49999872874628
 20
136.49999915715227
 11
302.49611350393837
 21
137.49611393234468
  0
LINE
  8
_0-6_JISSEN
  6
CONTINUOUS
 62
    7
 10
302.49611350393837
 20
137.49611393234468
 11
302.68374429350575
 21
143.49999915715298
  0
LINE
  8
_0-5_SAISEN
  6
CONTINUOUS
 62
    4
 10
303.78122530318427
 20
139.49999915715338
 11
303.90623155000065
 21
143.49999915715298
  0
LINE
  8
_0-6_JISSEN
  6
CONTINUOUS
 62
    7
 10
279.24999872874395
 20
110.99634672031539
 11
279.24999872874395
 21
111.49999915715279
  0
LINE
  8
_0-6_JISSEN
  6
CONTINUOUS
 62
    7
 10
282.07953476418828
 20
109.64935323682278
 11
280.07208302645557
 21
110.0123009882079
  0
ARC
  8
_0-6_JISSEN
  6
CONTINUOUS
 62
    7
 10
280.24999872874486
 20
110.99634672031539
 40
1
 50
179.99999999997388
 51
259.75162116555356
  0
ARC
  8
_0-6_JISSEN
  6
CONTINUOUS
 62
    7
 10
293.74999872874736
 20
111.0960758445996
 40
1
 50
259.7516211655801
 51
0.0000000000032187
  0
LINE
  8
_0-6_JISSEN
  6
CONTINUOUS
 62
    7
 10
296.19999872874263
 20
106.4999991571527
 11
296.31698793766918
 21
106.49999915715449
  0
ARC
  8
_0-6_JISSEN
  6
CONTINUOUS
 62
    7
 10
296.31698793766918
 20
106.69999915715459
 40
0.2
 50
270
 51
354.92039214003148
  0
ARC
  8
_0-6_JISSEN
  6
CONTINUOUS
 62
    7
 10
302.05166607689563
 20
107.58881876982838
 40
1.340962879392062
 50
142.9939697501317
 51
166.4699450128802
  0
LINE
  8
_0-6_JISSEN
  6
CONTINUOUS
 62
    7
 10
300.74791849659999
 20
107.9025442721082
 11
300.74791849659999
 21
107.9025442721082
  0
LINE
  8
_0-6_JISSEN
  6
CONTINUOUS
 62
    7
 10
300.74791849659999
 20
107.9025442721082
 11
300.8173413618826
 21
107.69121472442478
  0
LINE
  8
_0-6_JISSEN
  6
CONTINUOUS
 62
    7
 10
300.8173413618826
 20
107.69121472442478
 11
300.9097603797257
 21
107.47287505006703
  0
LINE
  8
_0-6_JISSEN
  6
CONTINUOUS
 62
    7
 10
300.9097603797257
 20
107.47287505006703
 11
300.91184699631577
 21
107.46843573217248
  0
ARC
  8
_0-6_JISSEN
  6
CONTINUOUS
 62
    7
 10
301.05108479642206
 20
108.3429759671684
 40
0.0879999999999999
 50
65.5355231717609
 51
142.99396975011084
  0
ARC
  8
_0-6_JISSEN
  6
CONTINUOUS
 62
    7
 10
299.74999872874537
 20
108.7777773690963
 40
0.2999999999999999
 50
180
 51
207.00000000000179
  0
ARC
  8
_0-6_JISSEN
  6
CONTINUOUS
 62
    7
 10
301.87255888637327
 20
104.39174957871029
 40
0.2
 50
207.00000000000179
 51
270
  0
LINE
  8
_0-6_JISSEN
  6
CONTINUOUS
 62
    7
 10
299.48269677148886
 20
108.64158021917439
 11
301.69435758153566
 21
104.30095147876239
  0
LINE
  8
_0-6_JISSEN
  6
CONTINUOUS
 62
    7
 10
279.24999872874395
 20
111.49999915715279
 11
294.74999872874736
 21
111.49999915715279
  0
LINE
  8
_0-6_JISSEN
  6
CONTINUOUS
 62
    7
 10
293.57208302645853
 20
110.11203011249199
 11
285.89527318266897
 21
111.49999915715279
  0
LINE
  8
_0-6_JISSEN
  6
CONTINUOUS
 62
    7
 10
294.59999872874806
 20
84.499999157094194
 11
293.59999872874243
 21
84.499999157096894
  0
ARC
  8
_0-6_JISSEN
  6
CONTINUOUS
 62
    7
 10
293.59999872874346
 20
85.999999157095985
 40
1.4999999999990901
 50
179.99999999911401
 51
269.99999999984362
  0
LINE
  8
_0-6_JISSEN
  6
CONTINUOUS
 62
    7
 10
296.09999872874255
 20
87.499999157093683
 11
296.09999872874255
 21
85.999999157157788
  0
ARC
  8
_0-6_JISSEN
  6
CONTINUOUS
 62
    7
 10
294.59999872874255
 20
85.999999157157788
 40
1.5
 50
269.99999999984362
 51
0
  0
LINE
  8
_0-6_JISSEN
  6
CONTINUOUS
 62
    7
 10
292.09999872874425
 20
85.999999157095985
 11
292.09999872874425
 21
95.499999157158285
  0
ARC
  8
_0-6_JISSEN
  6
CONTINUOUS
 62
    7
 10
277.09999872874425
 20
95.499999157158285
 40
15
 50
0.000000000000007
 51
70.611666382699582
  0
LINE
  8
_0-6_JISSEN
  6
CONTINUOUS
 62
    7
 10
296.09999872874266
 20
106.49999915715469
 11
296.09999872874255
 21
87.499999157093683
  0
ARC
  8
_0-6_JISSEN
  6
CONTINUOUS
 62
    7
 10
306.70940909276874
 20
107.1821045398259
 40
1.375879154787482
 50
114.4167034614543
 51
165.01444330966612
  0
LINE
  8
_0-6_JISSEN
  6
CONTINUOUS
 62
    7
 10
305.3803221577279
 20
107.53787323951984
 11
305.3803221577279
 21
107.53787323951984
  0
LINE
  8
_0-6_JISSEN
  6
CONTINUOUS
 62
    7
 10
305.3803221577279
 20
107.53787323951984
 11
305.40611343690881
 21
107.30958330374229
  0
LINE
  8
_0-6_JISSEN
  6
CONTINUOUS
 62
    7
 10
305.40611343690881
 20
107.30958330374229
 11
305.46510388653201
 21
107.08491417492858
  0
LINE
  8
_0-6_JISSEN
  6
CONTINUOUS
 62
    7
 10
305.46510388653201
 20
107.08491417492858
 11
305.47245551288665
 21
107.06379007290728
  0
ARC
  8
_0-6_JISSEN
  6
CONTINUOUS
 62
    7
 10
313.24999872874537
 20
107.0136285989814
 40
1.503191537583755
 50
90
 51
176.26571619777661
  0
LINE
  8
_0-2_HATCH
  6
CONTINUOUS
 62
    4
 10
303.99999872874548
 20
101.9417495787105
 11
303.99999872874548
 21
101.79174957871049
  0
LINE
  8
_0-6_JISSEN
  6
CONTINUOUS
 62
    7
 10
303.71735276179487
 20
104.4917495787104
 11
302.70557990194754
 21
104.4917495787104
  0
LINE
  8
_0-6_JISSEN
  6
CONTINUOUS
 62
    7
 10
308.41646568718784
 20
104.4917495787104
 11
306.38757417300627
 21
104.4917495787104
  0
ARC
  8
_0-2_HATCH
  6
CONTINUOUS
 62
    4
 10
305.74999872874548
 20
101.9417495787105
 40
0.2999999999998692
 50
90
 51
180.00000000000321
  0
ARC
  8
_0-2_HATCH
  6
CONTINUOUS
 62
    4
 10
305.24999872874537
 20
97.6917495787105
 40
0.2999999999999999
 50
199.47122063488749
 51
270
  0
LINE
  8
_0-2_HATCH
  6
CONTINUOUS
 62
    4
 10
303.99999872874537
 20
97.591749578710477
 11
303.99999872874537
 21
97.891749578710488
  0
LINE
  8
_0-2_HATCH
  6
CONTINUOUS
 62
    4
 10
303.99999872874537
 20
97.591749578710477
 11
303.99999872874537
 21
97.891749578710488
  0
LINE
  8
_0-2_HATCH
  6
CONTINUOUS
 62
    4
 10
303.99999872874548
 20
99.941749578710386
 11
303.99999872874548
 21
100.09174957871039
  0
ARC
  8
_0-2_HATCH
  6
CONTINUOUS
 62
    4
 10
305.74999872874548
 20
99.941749578710386
 40
0.2999999999998692
 50
180
 51
270
  0
LINE
  8
_0-2_HATCH
  6
CONTINUOUS
 62
    4
 10
311.14999872874546
 20
104.1917495787105
 11
311.14999872874546
 21
102.24174957871048
  0
ARC
  8
_0-2_HATCH
  6
CONTINUOUS
 62
    4
 10
310.04999872874544
 20
101.59174957871048
 40
0.2
 50
0.000000000000007
 51
90.000000000000014
  0
LINE
  8
_0-2_HATCH
  6
CONTINUOUS
 62
    4
 10
310.24999872874548
 20
101.59174957871048
 11
310.24999872874548
 21
101.29174957871038
  0
LINE
  8
_0-6_JISSEN
  6
CONTINUOUS
 62
    7
 10
313.24999872874537
 20
104.4917495787104
 11
311.74999872874548
 21
104.4917495787104
  0
LINE
  8
_0-2_HATCH
  6
CONTINUOUS
 62
    4
 10
310.24999872874548
 20
100.29174957871038
 11
310.24999872874548
 21
100.59174957871039
  0
ARC
  8
_0-2_HATCH
  6
CONTINUOUS
 62
    4
 10
310.04999872874544
 20
100.29174957871038
 40
0.2
 50
270
 51
0
  0
LINE
  8
_0-2_HATCH
  6
CONTINUOUS
 62
    4
 10
310.44999872874536
 20
98.091749578710591
 11
310.44999872874536
 21
97.991749578710397
  0
LINE
  8
_0-2_HATCH
  6
CONTINUOUS
 62
    4
 10
311.14999872874546
 20
99.641749578710375
 11
311.14999872874546
 21
98.391749578710488
  0
ARC
  8
_0-2_HATCH
  6
CONTINUOUS
 62
    4
 10
310.34999872874533
 20
97.991749578710397
 40
0.1
 50
270
 51
0
  0
ARC
  8
_0-2_HATCH
  6
CONTINUOUS
 62
    4
 10
310.74999872874548
 20
98.091749578710477
 40
0.2999999999999999
 50
90
 51
179.99999999998366
  0
ARC
  8
_0-2_HATCH
  6
CONTINUOUS
 62
    4
 10
310.59999872874545
 20
100.59174957871039
 40
0.3499999999999999
 50
90
 51
180
  0
LINE
  8
_0-2_HATCH
  6
CONTINUOUS
 62
    4
 10
313.24999872874537
 20
100.94174957871039
 11
310.59999872874545
 21
100.94174957871039
  0
LINE
  8
_0-2_HATCH
  6
CONTINUOUS
 62
    4
 10
310.74999872874537
 20
98.391749578710488
 11
313.24999872874537
 21
98.391749578710488
  0
ARC
  8
_0-2_HATCH
  6
CONTINUOUS
 62
    4
 10
310.59999872874545
 20
101.29174957871038
 40
0.3499999999999999
 50
180
 51
270
  0
LINE
  8
_0-2_HATCH
  6
CONTINUOUS
 62
    4
 10
313.24999872874537
 20
101.94174957871039
 11
303.99999872874548
 21
101.9417495787105
  0
LINE
  8
_0-2_HATCH
  6
CONTINUOUS
 62
    4
 10
313.24999872874537
 20
102.24174957871048
 11
305.74999872874548
 21
102.24174957871048
  0
LINE
  8
_0-2_HATCH
  6
CONTINUOUS
 62
    4
 10
313.24999872874537
 20
101.79174957871038
 11
303.99999872874548
 21
101.79174957871049
  0
LINE
  8
_0-2_HATCH
  6
CONTINUOUS
 62
    4
 10
313.24999872874537
 20
97.391749578710488
 11
305.24999872874537
 21
97.391749578710488
  0
LINE
  8
_0-2_HATCH
  6
CONTINUOUS
 62
    4
 10
313.24999872874537
 20
97.591749578710477
 11
303.99999872874537
 21
97.591749578710477
  0
LINE
  8
_0-2_HATCH
  6
CONTINUOUS
 62
    4
 10
303.99999872874537
 20
97.891749578710488
 11
313.24999872874537
 21
97.891749578710488
  0
LINE
  8
_0-2_HATCH
  6
CONTINUOUS
 62
    4
 10
313.24999872874537
 20
99.641749578710375
 11
305.74999872874548
 21
99.641749578710375
  0
LINE
  8
_0-2_HATCH
  6
CONTINUOUS
 62
    4
 10
313.24999872874537
 20
99.9417495787105
 11
303.99999872874548
 21
99.9417495787105
  0
LINE
  8
_0-2_HATCH
  6
CONTINUOUS
 62
    4
 10
313.24999872874537
 20
100.09174957871039
 11
303.99999872874548
 21
100.09174957871039
  0
LINE
  8
_0-6_JISSEN
  6
CONTINUOUS
 62
    7
 10
308.41646568718778
 20
104.4917495787104
 11
307.27339954210368
 21
107.70446126389999
  0
LINE
  8
_0-6_JISSEN
  6
CONTINUOUS
 62
    7
 10
311.74999872874548
 20
104.4917495787104
 11
311.74999872874548
 21
107.11153058396528
  0
LINE
  8
_0-6_JISSEN
  6
CONTINUOUS
 62
    7
 10
306.38757417300627
 20
104.4917495787104
 11
305.47245551290018
 21
107.06379007286839
  0
ARC
  8
_0-6_JISSEN
  6
CONTINUOUS
 62
    7
 10
311.74999872874486
 20
85.99999915709509
 40
1.4999999999990901
 50
0.000000000000007
 51
90.000000000000014
  0
LINE
  8
_0-6_JISSEN
  6
CONTINUOUS
 62
    7
 10
311.74999872874508
 20
97.391749578710488
 11
311.74999872874406
 21
87.499999157094194
  0
LINE
  8
_0-6_JISSEN
  6
CONTINUOUS
 62
    7
 10
311.74999872874486
 20
87.499999157094194
 11
296.09999872874255
 21
87.499999157094194
  0
LINE
  8
_0-6_JISSEN
  6
CONTINUOUS
 62
    7
 10
313.24999872874508
 20
84.499999157157788
 11
293.59999872874346
 21
84.499999157157788
  0
LINE
  8
_0-6_JISSEN
  6
CONTINUOUS
 62
    7
 10
313.24999872874548
 20
104.19174957871039
 11
301.87255888637327
 21
104.19174957871039
  0
LINE
  8
_0-6_JISSEN
  6
CONTINUOUS
 62
    7
 10
303.71735276179487
 20
104.4917495787104
 11
301.67670899273048
 21
107.87818243749939
  0
LINE
  8
_0-6_JISSEN
  6
CONTINUOUS
 62
    7
 10
302.70557990194737
 20
104.4917495787104
 11
300.91184699631577
 21
107.46843573217248
  0
LINE
  8
_0-6_JISSEN
  6
CONTINUOUS
 62
    7
 10
299.45240344600268
 20
108.73986895724119
 11
313.24999872874537
 21
108.73986895724119
  0
LINE
  8
_0-6_JISSEN
  6
CONTINUOUS
 62
    7
 10
296.51620246580836
 20
106.68229119909788
 11
297.49999872874366
 21
117.74999915717299
  0
LINE
  8
_0-6_JISSEN
  6
CONTINUOUS
 62
    7
 10
294.74999872874736
 20
111.0960758445996
 11
294.74999872874554
 21
138.24999915715838
  0
LINE
  8
_0-6_JISSEN
  6
CONTINUOUS
 62
    7
 10
299.44999872874547
 20
113.09174957871048
 11
299.44999872874547
 21
108.7777773690963
  0
LINE
  8
_0-6_JISSEN
  6
CONTINUOUS
 62
    7
 10
327.04999872874458
 20
113.09174957871048
 11
327.04999872874458
 21
108.7777773690963
  0
LINE
  8
_0-6_JISSEN
  6
CONTINUOUS
 62
    7
 10
331.74999872874264
 20
111.0960758445996
 11
331.74999872874446
 21
138.24999915715838
  0
LINE
  8
_0-6_JISSEN
  6
CONTINUOUS
 62
    7
 10
329.98379499168158
 20
106.68229119909788
 11
328.99999872874628
 21
117.74999915717299
  0
LINE
  8
_0-6_JISSEN
  6
CONTINUOUS
 62
    7
 10
327.04759401148726
 20
108.73986895724119
 11
313.24999872874463
 21
108.73986895724119
  0
LINE
  8
_0-6_JISSEN
  6
CONTINUOUS
 62
    7
 10
323.79441755554257
 20
104.4917495787104
 11
325.58815046117417
 21
107.46843573217248
  0
LINE
  8
_0-6_JISSEN
  6
CONTINUOUS
 62
    7
 10
322.78264469569507
 20
104.4917495787104
 11
324.82328846475957
 21
107.87818243749939
  0
LINE
  8
_0-6_JISSEN
  6
CONTINUOUS
 62
    7
 10
313.24999872874457
 20
104.19174957871039
 11
324.62743857111667
 21
104.19174957871039
  0
LINE
  8
_0-6_JISSEN
  6
CONTINUOUS
 62
    7
 10
313.24999872874508
 20
84.499999157157788
 11
332.89999872874654
 21
84.499999157157788
  0
LINE
  8
_0-6_JISSEN
  6
CONTINUOUS
 62
    7
 10
314.74999872874514
 20
87.499999157094194
 11
330.39999872874745
 21
87.499999157094194
  0
LINE
  8
_0-6_JISSEN
  6
CONTINUOUS
 62
    7
 10
314.74999872874508
 20
97.391749578710488
 11
314.74999872874594
 21
87.499999157094194
  0
ARC
  8
_0-6_JISSEN
  6
CONTINUOUS
 62
    7
 10
314.74999872874514
 20
85.99999915709509
 40
1.4999999999990901
 50
90
 51
180
  0
LINE
  8
_0-6_JISSEN
  6
CONTINUOUS
 62
    7
 10
320.11242328448367
 20
104.4917495787104
 11
321.02754194458976
 21
107.06379007286839
  0
LINE
  8
_0-6_JISSEN
  6
CONTINUOUS
 62
    7
 10
314.74999872874457
 20
104.4917495787104
 11
314.74999872874457
 21
107.11153058396528
  0
LINE
  8
_0-6_JISSEN
  6
CONTINUOUS
 62
    7
 10
318.08353177030216
 20
104.4917495787104
 11
319.22659791538638
 21
107.70446126389999
  0
LINE
  8
_0-2_HATCH
  6
CONTINUOUS
 62
    4
 10
313.24999872874463
 20
100.09174957871039
 11
322.49999872874457
 21
100.09174957871039
  0
LINE
  8
_0-2_HATCH
  6
CONTINUOUS
 62
    4
 10
313.24999872874463
 20
99.9417495787105
 11
322.49999872874457
 21
99.9417495787105
  0
LINE
  8
_0-2_HATCH
  6
CONTINUOUS
 62
    4
 10
313.24999872874463
 20
99.641749578710375
 11
320.74999872874457
 21
99.641749578710375
  0
LINE
  8
_0-2_HATCH
  6
CONTINUOUS
 62
    4
 10
322.49999872874463
 20
97.891749578710488
 11
313.24999872874463
 21
97.891749578710488
  0
LINE
  8
_0-2_HATCH
  6
CONTINUOUS
 62
    4
 10
313.24999872874463
 20
97.591749578710477
 11
322.49999872874463
 21
97.591749578710477
  0
LINE
  8
_0-2_HATCH
  6
CONTINUOUS
 62
    4
 10
313.24999872874463
 20
97.391749578710488
 11
321.24999872874463
 21
97.391749578710488
  0
LINE
  8
_0-2_HATCH
  6
CONTINUOUS
 62
    4
 10
313.24999872874463
 20
101.79174957871038
 11
322.49999872874457
 21
101.79174957871049
  0
LINE
  8
_0-2_HATCH
  6
CONTINUOUS
 62
    4
 10
313.24999872874463
 20
102.24174957871048
 11
320.74999872874457
 21
102.24174957871048
  0
LINE
  8
_0-2_HATCH
  6
CONTINUOUS
 62
    4
 10
313.24999872874463
 20
101.94174957871039
 11
322.49999872874457
 21
101.9417495787105
  0
ARC
  8
_0-2_HATCH
  6
CONTINUOUS
 62
    4
 10
315.89999872874455
 20
101.29174957871038
 40
0.3499999999999999
 50
270
 51
0
  0
LINE
  8
_0-2_HATCH
  6
CONTINUOUS
 62
    4
 10
315.74999872874463
 20
98.391749578710488
 11
313.24999872874463
 21
98.391749578710488
  0
LINE
  8
_0-2_HATCH
  6
CONTINUOUS
 62
    4
 10
313.24999872874463
 20
100.94174957871039
 11
315.89999872874455
 21
100.94174957871039
  0
ARC
  8
_0-2_HATCH
  6
CONTINUOUS
 62
    4
 10
315.89999872874455
 20
100.59174957871039
 40
0.3499999999999999
 50
0
 51
90
  0
ARC
  8
_0-2_HATCH
  6
CONTINUOUS
 62
    4
 10
315.74999872874457
 20
98.091749578710477
 40
0.2999999999999999
 50
0.0000000000162844
 51
90
  0
ARC
  8
_0-2_HATCH
  6
CONTINUOUS
 62
    4
 10
316.14999872874455
 20
97.991749578710397
 40
0.1
 50
180
 51
270
  0
LINE
  8
_0-2_HATCH
  6
CONTINUOUS
 62
    4
 10
315.34999872874448
 20
99.641749578710375
 11
315.34999872874448
 21
98.391749578710488
  0
LINE
  8
_0-2_HATCH
  6
CONTINUOUS
 62
    4
 10
316.04999872874464
 20
98.091749578710591
 11
316.04999872874464
 21
97.991749578710397
  0
ARC
  8
_0-2_HATCH
  6
CONTINUOUS
 62
    4
 10
316.44999872874445
 20
100.29174957871038
 40
0.2
 50
180
 51
270
  0
LINE
  8
_0-2_HATCH
  6
CONTINUOUS
 62
    4
 10
316.24999872874457
 20
100.29174957871038
 11
316.24999872874457
 21
100.59174957871039
  0
LINE
  8
_0-6_JISSEN
  6
CONTINUOUS
 62
    7
 10
313.24999872874463
 20
104.4917495787104
 11
314.74999872874457
 21
104.4917495787104
  0
LINE
  8
_0-2_HATCH
  6
CONTINUOUS
 62
    4
 10
316.24999872874457
 20
101.59174957871048
 11
316.24999872874457
 21
101.29174957871038
  0
ARC
  8
_0-2_HATCH
  6
CONTINUOUS
 62
    4
 10
316.44999872874445
 20
101.59174957871048
 40
0.2
 50
90
 51
180
  0
LINE
  8
_0-2_HATCH
  6
CONTINUOUS
 62
    4
 10
315.34999872874448
 20
104.1917495787105
 11
315.34999872874448
 21
102.24174957871048
  0
ARC
  8
_0-2_HATCH
  6
CONTINUOUS
 62
    4
 10
320.74999872874457
 20
99.941749578710386
 40
0.2999999999998692
 50
270
 51
0
  0
LINE
  8
_0-2_HATCH
  6
CONTINUOUS
 62
    4
 10
322.49999872874457
 20
99.941749578710386
 11
322.49999872874457
 21
100.09174957871039
  0
LINE
  8
_0-2_HATCH
  6
CONTINUOUS
 62
    4
 10
322.49999872874463
 20
97.591749578710477
 11
322.49999872874463
 21
97.891749578710488
  0
LINE
  8
_0-2_HATCH
  6
CONTINUOUS
 62
    4
 10
322.49999872874463
 20
97.591749578710477
 11
322.49999872874463
 21
97.891749578710488
  0
ARC
  8
_0-2_HATCH
  6
CONTINUOUS
 62
    4
 10
321.24999872874463
 20
97.6917495787105
 40
0.2999999999999999
 50
270
 51
340.52877936511243
  0
ARC
  8
_0-2_HATCH
  6
CONTINUOUS
 62
    4
 10
320.74999872874457
 20
101.9417495787105
 40
0.2999999999998692
 50
359.99999999999676
 51
90.000000000000043
  0
LINE
  8
_0-6_JISSEN
  6
CONTINUOUS
 62
    7
 10
318.08353177030193
 20
104.4917495787104
 11
320.11242328448367
 21
104.4917495787104
  0
LINE
  8
_0-6_JISSEN
  6
CONTINUOUS
 62
    7
 10
322.78264469569507
 20
104.4917495787104
 11
323.79441755554245
 21
104.4917495787104
  0
LINE
  8
_0-2_HATCH
  6
CONTINUOUS
 62
    4
 10
322.49999872874457
 20
101.9417495787105
 11
322.49999872874457
 21
101.79174957871049
  0
ARC
  8
_0-6_JISSEN
  6
CONTINUOUS
 62
    7
 10
313.24999872874463
 20
107.0136285989814
 40
1.503191537583755
 50
3.734283802223318
 51
90
  0
LINE
  8
_0-6_JISSEN
  6
CONTINUOUS
 62
    7
 10
319.20322335559388
 20
108.21991420880417
 11
319.20322335559388
 21
108.21991420880417
  0
LINE
  8
_0-6_JISSEN
  6
CONTINUOUS
 62
    7
 10
319.20322335559388
 20
108.21991420880417
 11
319.07899168792363
 21
108.0266579602455
  0
LINE
  8
_0-6_JISSEN
  6
CONTINUOUS
 62
    7
 10
319.07899168792363
 20
108.0266579602455
 11
318.98278233375413
 21
107.81523456807014
  0
LINE
  8
_0-6_JISSEN
  6
CONTINUOUS
 62
    7
 10
318.98278233375413
 20
107.81523456807014
 11
318.97513572120175
 21
107.7942154478997
  0
ARC
  8
_0-6_JISSEN
  6
CONTINUOUS
 62
    7
 10
319.79058836472126
 20
107.1821045398259
 40
1.375879154787482
 50
14.98555669033386
 51
65.583296538545611
  0
LINE
  8
_0-6_JISSEN
  6
CONTINUOUS
 62
    7
 10
330.39999872874728
 20
106.49999915715469
 11
330.39999872874745
 21
87.499999157093683
  0
ARC
  8
_0-6_JISSEN
  6
CONTINUOUS
 62
    7
 10
349.39999872874563
 20
95.499999157158285
 40
15
 50
109.3883336173004
 51
180
  0
LINE
  8
_0-6_JISSEN
  6
CONTINUOUS
 62
    7
 10
334.39999872874563
 20
85.999999157095985
 11
334.39999872874563
 21
95.499999157158285
  0
ARC
  8
_0-6_JISSEN
  6
CONTINUOUS
 62
    7
 10
331.89999872874745
 20
85.999999157157788
 40
1.5
 50
180
 51
270.00000000015632
  0
LINE
  8
_0-6_JISSEN
  6
CONTINUOUS
 62
    7
 10
330.39999872874745
 20
87.499999157093683
 11
330.39999872874745
 21
85.999999157157788
  0
ARC
  8
_0-6_JISSEN
  6
CONTINUOUS
 62
    7
 10
332.89999872874654
 20
85.999999157095985
 40
1.4999999999990901
 50
270.00000000015632
 51
0.0000000008858608
  0
LINE
  8
_0-6_JISSEN
  6
CONTINUOUS
 62
    7
 10
331.89999872874193
 20
84.499999157094194
 11
332.89999872874745
 21
84.499999157096894
  0
LINE
  8
_0-6_JISSEN
  6
CONTINUOUS
 62
    7
 10
332.92791443103147
 20
110.11203011249199
 11
340.60472427482097
 21
111.49999915715279
  0
LINE
  8
_0-6_JISSEN
  6
CONTINUOUS
 62
    7
 10
347.24999872874605
 20
111.49999915715279
 11
340.60472427482097
 21
111.49999915715279
  0
LINE
  8
_0-6_JISSEN
  6
CONTINUOUS
 62
    7
 10
327.01730068600108
 20
108.64158021917439
 11
324.80563987595434
 21
104.30095147876239
  0
ARC
  8
_0-6_JISSEN
  6
CONTINUOUS
 62
    7
 10
324.62743857111667
 20
104.39174957871029
 40
0.2
 50
270
 51
332.99999999999818
  0
ARC
  8
_0-6_JISSEN
  6
CONTINUOUS
 62
    7
 10
326.74999872874463
 20
108.7777773690963
 40
0.2999999999999999
 50
332.99999999999818
 51
0
  0
ARC
  8
_0-6_JISSEN
  6
CONTINUOUS
 62
    7
 10
325.44891266106794
 20
108.3429759671684
 40
0.0879999999999999
 50
37.006030249889079
 51
114.4644768282391
  0
LINE
  8
_0-6_JISSEN
  6
CONTINUOUS
 62
    7
 10
324.93059762262112
 20
108.39756391202017
 11
324.93059762262112
 21
108.39756391202017
  0
LINE
  8
_0-6_JISSEN
  6
CONTINUOUS
 62
    7
 10
324.93059762262112
 20
108.39756391202017
 11
324.77618876123722
 21
108.23744640681147
  0
LINE
  8
_0-6_JISSEN
  6
CONTINUOUS
 62
    7
 10
324.77618876123722
 20
108.23744640681147
 11
324.62632629855307
 21
108.05372180166567
  0
LINE
  8
_0-6_JISSEN
  6
CONTINUOUS
 62
    7
 10
324.62632629855307
 20
108.05372180166567
 11
324.62337623702479
 21
108.04980279042024
  0
ARC
  8
_0-6_JISSEN
  6
CONTINUOUS
 62
    7
 10
324.44833138059437
 20
107.58881876982838
 40
1.340962879392062
 50
13.530054987119808
 51
37.006030249868218
  0
ARC
  8
_0-6_JISSEN
  6
CONTINUOUS
 62
    7
 10
330.18300951982087
 20
106.69999915715459
 40
0.2
 50
185.07960785996832
 51
270
  0
LINE
  8
_0-6_JISSEN
  6
CONTINUOUS
 62
    7
 10
330.29999872874737
 20
106.4999991571527
 11
330.18300951982087
 21
106.49999915715449
  0
ARC
  8
_0-6_JISSEN
  6
CONTINUOUS
 62
    7
 10
332.74999872874258
 20
111.0960758445996
 40
1
 50
179.99999999999659
 51
280.24837883441978
  0
ARC
  8
_0-6_JISSEN
  6
CONTINUOUS
 62
    7
 10
346.24999872874497
 20
110.99634672031539
 40
1
 50
280.24837883444633
 51
0.0000000000260296
  0
LINE
  8
_0-6_JISSEN
  6
CONTINUOUS
 62
    7
 10
344.42046269330166
 20
109.64935323682278
 11
346.42791443103414
 21
110.0123009882079
  0
LINE
  8
_0-6_JISSEN
  6
CONTINUOUS
 62
    7
 10
347.24999872874605
 20
110.99634672031539
 11
347.24999872874605
 21
111.49999915715279
  0
LINE
  8
_0-5_SAISEN
  6
CONTINUOUS
 62
    4
 10
322.71877215430578
 20
139.49999915715338
 11
322.59376590748923
 21
143.49999915715298
  0
LINE
  8
_0-6_JISSEN
  6
CONTINUOUS
 62
    7
 10
324.00388395355156
 20
137.49611393234468
 11
323.81625316398413
 21
143.49999915715298
  0
LINE
  8
_0-6_JISSEN
  6
CONTINUOUS
 62
    7
 10
324.99999872874378
 20
136.49999915715227
 11
324.00388395355156
 21
137.49611393234468
  0
LINE
  8
_0-6_JISSEN
  6
CONTINUOUS
 62
    7
 10
324.74999872874463
 20
125.3979138573269
 11
323.13429982251358
 21
125.3979138573269
  0
LINE
  8
_0-6_JISSEN
  6
CONTINUOUS
 62
    7
 10
324.25233381126304
 20
122.89791385732639
 11
324.53591453936764
 21
122.89791385732639
  0
ARC
  8
_0-6_JISSEN
  6
CONTINUOUS
 62
    7
 10
323.99999872874463
 20
122.8979138573269
 40
0.5
 50
0
 51
129.23400442067231
  0
LINE
  8
_0-6_JISSEN
  6
CONTINUOUS
 62
    7
 10
330.24999872874378
 20
136.49999915715318
 11
313.24999872874463
 21
136.49999915715338
  0
LINE
  8
_0-6_JISSEN
  6
CONTINUOUS
 62
    7
 10
315.74999872874508
 20
135.44999915716068
 11
326.99999872874434
 21
135.44999915716068
  0
LINE
  8
_0-6_JISSEN
  6
CONTINUOUS
 62
    7
 10
326.99999872874434
 20
135.99999915715318
 11
315.74999872874508
 21
135.99999915715318
  0
LINE
  8
_0-6_JISSEN
  6
CONTINUOUS
 62
    7
 10
313.24999872874463
 20
130.49999915715338
 11
330.24999872874378
 21
130.49999915715318
  0
LINE
  8
_0-6_JISSEN
  6
CONTINUOUS
 62
    7
 10
326.99999872874434
 20
134.54999915715308
 11
315.74999872874508
 21
134.54999915715038
  0
LINE
  8
_0-6_JISSEN
  6
CONTINUOUS
 62
    7
 10
326.99999872874434
 20
133.04999915714649
 11
315.74999872874508
 21
133.0499991571493
  0
LINE
  8
_0-6_JISSEN
  6
CONTINUOUS
 62
    7
 10
315.74999872874508
 20
133.94999915715249
 11
326.99999872874434
 21
133.94999915715249
  0
LINE
  8
_0-6_JISSEN
  6
CONTINUOUS
 62
    7
 10
326.99999872874434
 20
130.99999915715338
 11
315.74999872874508
 21
130.99999915715338
  0
LINE
  8
_0-6_JISSEN
  6
CONTINUOUS
 62
    7
 10
315.74999872874508
 20
131.54999915715408
 11
326.99999872874434
 21
131.54999915715339
  0
LINE
  8
_0-6_JISSEN
  6
CONTINUOUS
 62
    7
 10
315.74999872874508
 20
132.44999915715249
 11
326.99999872874434
 21
132.44999915715249
  0
LINE
  8
_0-6_JISSEN
  6
CONTINUOUS
 62
    7
 10
323.97251097250444
 20
138.49999915715838
 11
331.49999872874434
 21
138.49999915715838
  0
LINE
  8
_0-6_JISSEN
  6
CONTINUOUS
 62
    7
 10
313.24999872874463
 20
114.19174957871039
 11
327.34999872874465
 21
114.19174957871039
  0
LINE
  8
_0-6_JISSEN
  6
CONTINUOUS
 62
    7
 10
327.34999872874465
 20
113.99174957871048
 11
313.24999872874463
 21
113.99174957871048
  0
LINE
  8
_0-6_JISSEN
  6
CONTINUOUS
 62
    7
 10
313.24999872874463
 20
114.19174957871039
 11
327.34999872874465
 21
114.19174957871039
  0
LINE
  8
_0-6_JISSEN
  6
CONTINUOUS
 62
    7
 10
313.24999872874463
 20
116.89791385732639
 11
328.14999872874478
 21
116.89791385732639
  0
LINE
  8
_0-4_TEXT
  6
CONTINUOUS
 62
    7
 10
328.39999872874478
 20
117.33092655921809
 11
313.24999872874463
 21
117.33092655921809
  0
LINE
  8
_0-6_JISSEN
  6
CONTINUOUS
 62
    7
 10
328.39999872874478
 20
125.89791385732639
 11
324.25233381126304
 21
125.89791385732607
  0
ARC
  8
_0-6_JISSEN
  6
CONTINUOUS
 62
    7
 10
323.99999872874463
 20
122.8979138573269
 40
2.5000000000000089
 50
0
 51
114.33587933313939
  0
LINE
  8
_0-3_SUNPOU
  6
CONTINUOUS
 62
    7
 10
328.40008216676097
 20
129.89791385732639
 11
313.24999872874463
 21
129.89791385732639
  0
LINE
  8
_0-6_JISSEN
  6
CONTINUOUS
 62
    7
 10
316.92399033444428
 20
116.89791385732639
 11
316.92399033444428
 21
114.19174957871039
  0
LINE
  8
_0-5_SAISEN
  6
CONTINUOUS
 62
    4
 10
314.94999872874456
 20
116.89791385732639
 11
314.94999872874456
 21
115.54169967453348
  0
LINE
  8
_0-6_JISSEN
  6
CONTINUOUS
 62
    7
 10
315.24999872874463
 20
115.84169967453349
 11
315.24999872874463
 21
116.89791385732639
  0
LINE
  8
_0-6_JISSEN
  6
CONTINUOUS
 62
    7
 10
315.24999872874463
 20
115.84169967453349
 11
314.74999872874474
 21
115.34169967453349
  0
LINE
  8
_0-4_TEXT
  6
CONTINUOUS
 62
    7
 10
315.24999872874463
 20
116.35294667237818
 11
313.24999872874463
 21
116.35294667237818
  0
LINE
  8
_0-6_JISSEN
  6
CONTINUOUS
 62
    7
 10
314.74999872874474
 20
115.34169967453349
 11
314.74999872874474
 21
114.19174957871039
  0
LINE
  8
_0-4_TEXT
  6
CONTINUOUS
 62
    7
 10
314.74999872874474
 20
115.8529466723781
 11
313.24999872874463
 21
115.85294667237798
  0
LINE
  8
_0-6_JISSEN
  6
CONTINUOUS
 62
    7
 10
321.51251654455996
 20
116.89791385732639
 11
321.51251654455996
 21
114.1917495787105
  0
LINE
  8
_0-6_JISSEN
  6
CONTINUOUS
 62
    7
 10
319.63999872874444
 20
114.19174957871039
 11
319.63999872874444
 21
116.89791385732639
  0
LINE
  8
_0-6_JISSEN
  6
CONTINUOUS
 62
    7
 10
318.32399033444426
 20
116.89791385732639
 11
318.32399033444437
 21
114.19174957871039
  0
ARC
  8
_0-6_JISSEN
  6
CONTINUOUS
 62
    7
 10
324.25233381126304
 20
124.3979138573265
 40
1.5
 50
90
 51
270
  0
LINE
  8
_0-6_JISSEN
  6
CONTINUOUS
 62
    7
 10
323.47521710681895
 20
123.11491361271459
 11
323.68375417252645
 21
123.28519848219909
  0
LINE
  8
_0-6_JISSEN
  6
CONTINUOUS
 62
    7
 10
315.74999872874508
 20
136.49999915715318
 11
315.74999872874508
 21
130.49999915715318
  0
LINE
  8
_0-6_JISSEN
  6
CONTINUOUS
 62
    7
 10
324.00388395355156
 20
137.49611393234468
 11
313.24999872874463
 21
137.49611393234579
  0
LINE
  8
_0-5_SAISEN
  6
CONTINUOUS
 62
    4
 10
324.00388395355156
 20
137.49611393234468
 11
322.71877215430578
 21
139.49999915715338
  0
LINE
  8
_0-6_JISSEN
  6
CONTINUOUS
 62
    7
 10
330.89999872874205
 20
137.8999991571537
 11
330.89999872874495
 21
122.49999915715838
  0
LINE
  8
_0-6_JISSEN
  6
CONTINUOUS
 62
    7
 10
328.39999872874478
 20
130.49999915715378
 11
328.39999872874478
 21
125.89791385732639
  0
LINE
  8
_0-6_JISSEN
  6
CONTINUOUS
 62
    7
 10
330.89999872874495
 20
122.49999915715779
 11
328.49999872874537
 21
120.09999915715917
  0
LINE
  8
_0-6_JISSEN
  6
CONTINUOUS
 62
    7
 10
328.39999872874478
 20
117.33092655921809
 11
328.39999872874478
 21
122.89791385732639
  0
LINE
  8
_0-6_JISSEN
  6
CONTINUOUS
 62
    7
 10
327.34999872874465
 20
114.19174957871039
 11
327.34999872874465
 21
113.9917495787104
  0
LINE
  8
_0-6_JISSEN
  6
CONTINUOUS
 62
    7
 10
327.34999872874465
 20
114.19174957871039
 11
327.34999872874465
 21
113.9917495787104
  0
ARC
  8
_0-6_JISSEN
  6
CONTINUOUS
 62
    7
 10
328.54999872874464
 20
113.09174957871048
 40
1.5
 50
143.13010235416243
 51
180.00000000000003
  0
LINE
  8
_0-6_JISSEN
  6
CONTINUOUS
 62
    7
 10
328.99999872874628
 20
117.74999915717299
 11
328.49999872874537
 21
117.74999915717299
  0
LINE
  8
_0-6_JISSEN
  6
CONTINUOUS
 62
    7
 10
328.14999872874478
 20
116.89791385732639
 11
328.39999872874478
 21
117.33092655921809
  0
LINE
  8
_0-6_JISSEN
  6
CONTINUOUS
 62
    7
 10
328.49999872874537
 20
120.09999915715917
 11
328.49999872874537
 21
117.74999915715787
  0
LINE
  8
_0-6_JISSEN
  6
CONTINUOUS
 62
    7
 10
324.49999872874463
 20
122.89791385732639
 11
328.39999872874478
 21
122.89791385732639
  0
LINE
  8
_0-6_JISSEN
  6
CONTINUOUS
 62
    7
 10
324.74999872874463
 20
125.89791385732607
 11
324.74999872874463
 21
125.3979138573269
  0
LINE
  8
_0-6_JISSEN
  6
CONTINUOUS
 62
    7
 10
329.49999872874457
 20
135.44999915716068
 11
329.49999872874457
 21
135.99999915716108
  0
LINE
  8
_0-6_JISSEN
  6
CONTINUOUS
 62
    7
 10
330.74999872874366
 20
135.44999915715249
 11
330.74999872874366
 21
135.99999915715318
  0
LINE
  8
_0-6_JISSEN
  6
CONTINUOUS
 62
    7
 10
326.99999872875105
 20
135.99999915715318
 11
326.99999872874463
 21
135.44999915716068
  0
LINE
  8
_0-6_JISSEN
  6
CONTINUOUS
 62
    7
 10
328.49408382850174
 20
130.49999915715318
 11
328.49408382850174
 21
136.49999915715318
  0
LINE
  8
_0-6_JISSEN
  6
CONTINUOUS
 62
    7
 10
329.49999872874457
 20
135.44999915716048
 11
330.74999872874366
 21
135.44999915716048
  0
ARC
  8
_0-6_JISSEN
  6
CONTINUOUS
 62
    7
 10
330.93749872874378
 20
133.4999991571529
 40
0.4874999999996627
 50
112.6198649480387
 51
247.38013505195391
  0
LINE
  8
_0-6_JISSEN
  6
CONTINUOUS
 62
    7
 10
330.74999872874366
 20
133.04999915714558
 11
329.49999872874446
 21
133.04999915714609
  0
LINE
  8
_0-6_JISSEN
  6
CONTINUOUS
 62
    7
 10
330.74999872874366
 20
130.99999915715318
 11
329.49999872874446
 21
130.99999915715318
  0
LINE
  8
_0-6_JISSEN
  6
CONTINUOUS
 62
    7
 10
329.49999872874446
 20
132.44999915715249
 11
330.74999872874366
 21
132.44999915715249
  0
LINE
  8
_0-6_JISSEN
  6
CONTINUOUS
 62
    7
 10
329.49999872874446
 20
131.54999915715339
 11
330.74999872874366
 21
131.54999915715308
  0
LINE
  8
_0-6_JISSEN
  6
CONTINUOUS
 62
    7
 10
330.24999872874378
 20
130.49999915715318
 11
330.74999872874366
 21
130.99999915715318
  0
ARC
  8
_0-6_JISSEN
  6
CONTINUOUS
 62
    7
 10
330.93749872874378
 20
131.99999915715497
 40
0.4874999999996627
 50
112.6198649480387
 51
247.38013505195391
  0
LINE
  8
_0-6_JISSEN
  6
CONTINUOUS
 62
    7
 10
330.74999872874366
 20
134.54999915715379
 11
329.49999872874446
 21
134.54999915715348
  0
LINE
  8
_0-6_JISSEN
  6
CONTINUOUS
 62
    7
 10
329.49999872874446
 20
133.94999915715249
 11
330.74999872874366
 21
133.94999915715249
  0
ARC
  8
_0-6_JISSEN
  6
CONTINUOUS
 62
    7
 10
330.93749872874378
 20
134.99999915715298
 40
0.4874999999996627
 50
112.6198649480387
 51
247.38013505195391
  0
ARC
  8
_0-6_JISSEN
  6
CONTINUOUS
 62
    7
 10
327.44979653336986
 20
131.99999915716319
 40
0.6362531454111287
 50
134.98712495037344
 51
225.01287504961732
  0
ARC
  8
_0-6_JISSEN
  6
CONTINUOUS
 62
    7
 10
329.94979653336986
 20
131.99999915716299
 40
0.6362531454111287
 50
134.98712495037344
 51
225.01287504961732
  0
LINE
  8
_0-6_JISSEN
  6
CONTINUOUS
 62
    7
 10
326.59999872874448
 20
130.49999915715338
 11
326.99999872874434
 21
130.9999991571614
  0
LINE
  8
_0-6_JISSEN
  6
CONTINUOUS
 62
    7
 10
326.99999872875458
 20
131.54999915715339
 11
326.99999872874434
 21
130.9999991571614
  0
LINE
  8
_0-6_JISSEN
  6
CONTINUOUS
 62
    7
 10
329.49999872874446
 20
130.99999915716108
 11
329.49999872874446
 21
131.5499991571613
  0
LINE
  8
_0-5_SAISEN
  6
CONTINUOUS
 62
    4
 10
327.89999872874478
 20
130.49999915715358
 11
327.89999872874478
 21
129.89791385732639
  0
LINE
  8
_0-6_JISSEN
  6
CONTINUOUS
 62
    7
 10
327.89999872874478
 20
129.89791385732619
 11
328.39999872874478
 21
129.60923872273139
  0
LINE
  8
_0-6_JISSEN
  6
CONTINUOUS
 62
    7
 10
329.09999872874448
 20
130.49999915715318
 11
329.49999872874446
 21
130.99999915716108
  0
ARC
  8
_0-6_JISSEN
  6
CONTINUOUS
 62
    7
 10
327.44979653337003
 20
133.49999915716108
 40
0.6362531454111287
 50
134.98712495037344
 51
225.01287504961732
  0
LINE
  8
_0-6_JISSEN
  6
CONTINUOUS
 62
    7
 10
326.99999872875958
 20
133.0499991571468
 11
326.99999872874434
 21
132.44999915716278
  0
LINE
  8
_0-6_JISSEN
  6
CONTINUOUS
 62
    7
 10
326.99999872875287
 20
134.54999915715308
 11
326.99999872874463
 21
133.94999915716099
  0
ARC
  8
_0-6_JISSEN
  6
CONTINUOUS
 62
    7
 10
327.44979653337003
 20
134.99999915716108
 40
0.6362531454111287
 50
134.98712495037344
 51
225.01287504961732
  0
LINE
  8
_0-6_JISSEN
  6
CONTINUOUS
 62
    7
 10
329.49999872874446
 20
132.44999915716278
 11
329.49999872874446
 21
133.0499991571613
  0
LINE
  8
_0-6_JISSEN
  6
CONTINUOUS
 62
    7
 10
329.49999872874446
 20
132.44999915716249
 11
329.49999872874446
 21
133.0499991571613
  0
LINE
  8
_0-6_JISSEN
  6
CONTINUOUS
 62
    7
 10
329.49999872874446
 20
133.94999915716068
 11
329.49999872874446
 21
134.5499991571613
  0
ARC
  8
_0-6_JISSEN
  6
CONTINUOUS
 62
    7
 10
329.94979653337003
 20
133.49999915716108
 40
0.6362531454111287
 50
134.98712495037344
 51
225.01287504961732
  0
ARC
  8
_0-6_JISSEN
  6
CONTINUOUS
 62
    7
 10
329.94979653337003
 20
134.99999915716089
 40
0.6362531454111287
 50
134.98712495037344
 51
225.01287504961732
  0
LINE
  8
_0-6_JISSEN
  6
CONTINUOUS
 62
    7
 10
330.74999872874366
 20
130.99999915715318
 11
330.74999872874366
 21
131.54999915715308
  0
LINE
  8
_0-6_JISSEN
  6
CONTINUOUS
 62
    7
 10
330.74999872874366
 20
132.44999915715459
 11
330.74999872874366
 21
133.04999915715308
  0
LINE
  8
_0-6_JISSEN
  6
CONTINUOUS
 62
    7
 10
330.74999872874366
 20
133.94999915715249
 11
330.74999872874366
 21
134.54999915715308
  0
LINE
  8
_0-6_JISSEN
  6
CONTINUOUS
 62
    7
 10
330.74999872874366
 20
135.99999915715318
 11
329.49999872874457
 21
135.99999915715318
  0
LINE
  8
_0-6_JISSEN
  6
CONTINUOUS
 62
    7
 10
330.74999872874366
 20
135.99999915715318
 11
330.24999872874378
 21
136.49999915715318
  0
LINE
  8
_0-6_JISSEN
  6
CONTINUOUS
 62
    7
 10
326.99999872874434
 20
135.9999991571614
 11
326.59999872874454
 21
136.49999915715338
  0
LINE
  8
_0-6_JISSEN
  6
CONTINUOUS
 62
    7
 10
329.49999872874457
 20
135.99999915716108
 11
329.09999872874454
 21
136.49999915715318
  0
LINE
  8
_0-6_JISSEN
  6
CONTINUOUS
 62
    7
 10
331.49999872874434
 20
138.49999915715838
 11
331.74999872874446
 21
138.24999915715838
  0
LINE
  8
_0-6_JISSEN
  6
CONTINUOUS
 62
    7
 10
330.89999872874586
 20
137.89999915715759
 11
331.49999872874434
 21
138.49999915715838
  0
LINE
  8
_0-6_JISSEN
  6
CONTINUOUS
 62
    7
 10
99.249998728745652
 20
111.4999991571614
 11
83.749998728742156
 21
111.49999915715739
  0
LINE
  8
_0-6_JISSEN
  6
CONTINUOUS
 62
    7
 10
48.099998728742548
 20
106.49999915715438
 11
48.199998728742457
 21
106.4999991571525
  0
LINE
  8
_0-6_JISSEN
  6
CONTINUOUS
 62
    7
 10
82.29999872874717
 20
106.4999991571525
 11
82.39999872874705
 21
106.49999915715438
  0
LINE
  8
_0-6_JISSEN
  6
CONTINUOUS
 62
    7
 10
47.599998728743969
 20
137.8999991571574
 11
46.999998728745368
 21
138.49999915715819
  0
LINE
  8
_0-6_JISSEN
  6
CONTINUOUS
 62
    7
 10
46.999998728745368
 20
138.49999915715819
 11
46.749998728745368
 21
138.24999915715819
  0
LINE
  8
_0-6_JISSEN
  6
CONTINUOUS
 62
    7
 10
48.999998728745254
 20
135.999999157161
 11
49.39999872874526
 21
136.49999915715279
  0
LINE
  8
_0-6_JISSEN
  6
CONTINUOUS
 62
    7
 10
51.499998728745368
 20
135.9999991571612
 11
51.89999872874526
 21
136.4999991571531
  0
LINE
  8
_0-6_JISSEN
  6
CONTINUOUS
 62
    7
 10
47.74999872874605
 20
135.99999915715279
 11
48.24999872874605
 21
136.49999915715279
  0
LINE
  8
_0-6_JISSEN
  6
CONTINUOUS
 62
    7
 10
47.74999872874605
 20
135.99999915715279
 11
48.999998728745254
 21
135.99999915715279
  0
LINE
  8
_0-6_JISSEN
  6
CONTINUOUS
 62
    7
 10
47.74999872874605
 20
133.94999915715218
 11
47.74999872874605
 21
134.549999157153
  0
LINE
  8
_0-6_JISSEN
  6
CONTINUOUS
 62
    7
 10
47.74999872874605
 20
132.4499991571542
 11
47.74999872874605
 21
133.049999157153
  0
LINE
  8
_0-6_JISSEN
  6
CONTINUOUS
 62
    7
 10
47.74999872874605
 20
130.9999991571529
 11
47.74999872874605
 21
131.549999157153
  0
ARC
  8
_0-6_JISSEN
  6
CONTINUOUS
 62
    7
 10
48.550200924119736
 20
134.9999991571608
 40
0.6362531454111287
 50
314.98712495038268
 51
45.01287504962653
  0
ARC
  8
_0-6_JISSEN
  6
CONTINUOUS
 62
    7
 10
48.550200924119736
 20
133.4999991571608
 40
0.6362531454111287
 50
314.98712495038268
 51
45.01287504962653
  0
LINE
  8
_0-6_JISSEN
  6
CONTINUOUS
 62
    7
 10
48.999998728745368
 20
133.94999915716039
 11
48.999998728745368
 21
134.54999915716118
  0
LINE
  8
_0-6_JISSEN
  6
CONTINUOUS
 62
    7
 10
48.999998728745368
 20
132.44999915716238
 11
48.999998728745368
 21
133.04999915716098
  0
LINE
  8
_0-6_JISSEN
  6
CONTINUOUS
 62
    7
 10
48.999998728745368
 20
132.44999915716238
 11
48.999998728745368
 21
133.04999915716118
  0
ARC
  8
_0-6_JISSEN
  6
CONTINUOUS
 62
    7
 10
51.050200924119736
 20
134.9999991571608
 40
0.6362531454111287
 50
314.98712495038268
 51
45.01287504962653
  0
LINE
  8
_0-6_JISSEN
  6
CONTINUOUS
 62
    7
 10
51.499998728736955
 20
134.5499991571528
 11
51.49999872874514
 21
133.94999915716059
  0
LINE
  8
_0-6_JISSEN
  6
CONTINUOUS
 62
    7
 10
51.499998728730361
 20
133.04999915714637
 11
51.499998728745368
 21
132.44999915716269
  0
ARC
  8
_0-6_JISSEN
  6
CONTINUOUS
 62
    7
 10
51.050200924119736
 20
133.499999157161
 40
0.6362531454111287
 50
314.98712495038268
 51
45.01287504962653
  0
LINE
  8
_0-6_JISSEN
  6
CONTINUOUS
 62
    7
 10
49.399998728745345
 20
130.49999915715279
 11
48.999998728745368
 21
130.999999157161
  0
LINE
  8
_0-6_JISSEN
  6
CONTINUOUS
 62
    7
 10
50.599998728745049
 20
129.89791385732599
 11
50.099998728745049
 21
129.60923872273119
  0
LINE
  8
_0-5_SAISEN
  6
CONTINUOUS
 62
    4
 10
50.599998728745049
 20
130.4999991571535
 11
50.599998728745049
 21
129.89791385732619
  0
LINE
  8
_0-6_JISSEN
  6
CONTINUOUS
 62
    7
 10
48.999998728745368
 20
130.999999157161
 11
48.999998728745368
 21
131.54999915716118
  0
LINE
  8
_0-6_JISSEN
  6
CONTINUOUS
 62
    7
 10
51.49999872873525
 20
131.54999915715328
 11
51.499998728745368
 21
130.99999915716108
  0
LINE
  8
_0-6_JISSEN
  6
CONTINUOUS
 62
    7
 10
51.899998728745345
 20
130.4999991571531
 11
51.499998728745368
 21
130.99999915716108
  0
ARC
  8
_0-6_JISSEN
  6
CONTINUOUS
 62
    7
 10
48.550200924119963
 20
131.99999915716279
 40
0.6362531454111287
 50
314.98712495038268
 51
45.01287504962653
  0
ARC
  8
_0-6_JISSEN
  6
CONTINUOUS
 62
    7
 10
51.050200924119963
 20
131.99999915716279
 40
0.6362531454111287
 50
314.98712495038268
 51
45.01287504962653
  0
ARC
  8
_0-6_JISSEN
  6
CONTINUOUS
 62
    7
 10
47.56249872874605
 20
134.99999915715259
 40
0.4874999999996627
 50
292.61986494804597
 51
67.380135051961219
  0
LINE
  8
_0-6_JISSEN
  6
CONTINUOUS
 62
    7
 10
48.999998728745368
 20
133.94999915715218
 11
47.74999872874605
 21
133.94999915715218
  0
LINE
  8
_0-6_JISSEN
  6
CONTINUOUS
 62
    7
 10
47.74999872874605
 20
134.54999915715368
 11
48.999998728745368
 21
134.54999915715348
  0
ARC
  8
_0-6_JISSEN
  6
CONTINUOUS
 62
    7
 10
47.56249872874605
 20
131.99999915715458
 40
0.4874999999996627
 50
292.61986494804597
 51
67.380135051961219
  0
LINE
  8
_0-6_JISSEN
  6
CONTINUOUS
 62
    7
 10
48.24999872874605
 20
130.49999915715279
 11
47.74999872874605
 21
130.9999991571529
  0
LINE
  8
_0-6_JISSEN
  6
CONTINUOUS
 62
    7
 10
48.999998728745368
 20
131.549999157153
 11
47.74999872874605
 21
131.549999157153
  0
LINE
  8
_0-6_JISSEN
  6
CONTINUOUS
 62
    7
 10
48.999998728745368
 20
132.44999915715218
 11
47.74999872874605
 21
132.44999915715218
  0
LINE
  8
_0-6_JISSEN
  6
CONTINUOUS
 62
    7
 10
47.74999872874605
 20
130.9999991571531
 11
48.999998728745368
 21
130.9999991571531
  0
LINE
  8
_0-6_JISSEN
  6
CONTINUOUS
 62
    7
 10
47.74999872874605
 20
133.04999915714549
 11
48.999998728745368
 21
133.04999915714569
  0
ARC
  8
_0-6_JISSEN
  6
CONTINUOUS
 62
    7
 10
47.56249872874605
 20
133.49999915715259
 40
0.4874999999996627
 50
292.61986494804597
 51
67.380135051961219
  0
LINE
  8
_0-6_JISSEN
  6
CONTINUOUS
 62
    7
 10
48.999998728745254
 20
135.44999915716039
 11
47.74999872874605
 21
135.44999915716039
  0
LINE
  8
_0-6_JISSEN
  6
CONTINUOUS
 62
    7
 10
50.005913628988054
 20
130.49999915715279
 11
50.005913628988054
 21
136.49999915715279
  0
LINE
  8
_0-6_JISSEN
  6
CONTINUOUS
 62
    7
 10
51.499998728738774
 20
135.99999915715298
 11
51.49999872874514
 21
135.44999915716059
  0
LINE
  8
_0-6_JISSEN
  6
CONTINUOUS
 62
    7
 10
47.74999872874605
 20
135.44999915715218
 11
47.74999872874605
 21
135.99999915715279
  0
LINE
  8
_0-6_JISSEN
  6
CONTINUOUS
 62
    7
 10
48.999998728745254
 20
135.44999915716039
 11
48.999998728745254
 21
135.999999157161
  0
LINE
  8
_0-6_JISSEN
  6
CONTINUOUS
 62
    7
 10
53.74999872874514
 20
125.89791385732588
 11
53.74999872874514
 21
125.39791385732659
  0
LINE
  8
_0-6_JISSEN
  6
CONTINUOUS
 62
    7
 10
53.999998728745055
 20
122.89791385732619
 11
50.099998728745163
 21
122.89791385732607
  0
LINE
  8
_0-6_JISSEN
  6
CONTINUOUS
 62
    7
 10
49.999998728744458
 20
120.09999915715898
 11
49.999998728744458
 21
117.74999915715767
  0
LINE
  8
_0-6_JISSEN
  6
CONTINUOUS
 62
    7
 10
50.349998728745163
 20
116.89791385732619
 11
50.099998728745163
 21
117.33092655921789
  0
LINE
  8
_0-6_JISSEN
  6
CONTINUOUS
 62
    7
 10
49.499998728743549
 20
117.74999915717268
 11
49.999998728744458
 21
117.74999915717268
  0
ARC
  8
_0-6_JISSEN
  6
CONTINUOUS
 62
    7
 10
49.949998728745072
 20
113.09174957871028
 40
1.5
 50
0.000000000000007
 51
36.869897645837511
  0
LINE
  8
_0-6_JISSEN
  6
CONTINUOUS
 62
    7
 10
51.149998728745175
 20
114.19174957871019
 11
51.149998728745175
 21
113.99174957871008
  0
LINE
  8
_0-6_JISSEN
  6
CONTINUOUS
 62
    7
 10
51.149998728745175
 20
114.19174957871019
 11
51.149998728745175
 21
113.99174957871008
  0
LINE
  8
_0-6_JISSEN
  6
CONTINUOUS
 62
    7
 10
50.099998728745163
 20
117.33092655921789
 11
50.099998728745163
 21
122.89791385732619
  0
LINE
  8
_0-6_JISSEN
  6
CONTINUOUS
 62
    7
 10
47.59999872874485
 20
122.49999915715759
 11
49.999998728744458
 21
120.09999915715898
  0
LINE
  8
_0-6_JISSEN
  6
CONTINUOUS
 62
    7
 10
50.099998728745049
 20
130.4999991571535
 11
50.099998728745049
 21
125.89791385732619
  0
LINE
  8
_0-6_JISSEN
  6
CONTINUOUS
 62
    7
 10
47.59999872874775
 20
137.89999915715347
 11
47.59999872874485
 21
122.49999915715819
  0
LINE
  8
_0-5_SAISEN
  6
CONTINUOUS
 62
    4
 10
54.496113503938147
 20
137.49611393234449
 11
55.781225303184158
 21
139.4999991571531
  0
LINE
  8
_0-6_JISSEN
  6
CONTINUOUS
 62
    7
 10
54.558738046689371
 20
139.4999991571531
 11
75.941259410800257
 21
139.4999991571535
  0
LINE
  8
_0-6_JISSEN
  6
CONTINUOUS
 62
    7
 10
54.496113503938147
 20
137.49611393234449
 11
65.249998728745169
 21
137.49611393234539
  0
LINE
  8
_0-6_JISSEN
  6
CONTINUOUS
 62
    7
 10
62.749998728744657
 20
136.4999991571531
 11
62.749998728744657
 21
130.4999991571531
  0
LINE
  8
_0-6_JISSEN
  6
CONTINUOUS
 62
    7
 10
55.024780350670767
 20
123.11491361271439
 11
54.816243284963264
 21
123.28519848219889
  0
ARC
  8
_0-6_JISSEN
  6
CONTINUOUS
 62
    7
 10
54.24766364622667
 20
124.39791385732619
 40
1.5
 50
270
 51
90
  0
LINE
  8
_0-6_JISSEN
  6
CONTINUOUS
 62
    7
 10
60.176007123045565
 20
116.89791385732619
 11
60.176007123045451
 21
114.19174957871019
  0
LINE
  8
_0-6_JISSEN
  6
CONTINUOUS
 62
    7
 10
58.859998728745268
 20
114.19174957871019
 11
58.859998728745268
 21
116.89791385732619
  0
LINE
  8
_0-6_JISSEN
  6
CONTINUOUS
 62
    7
 10
56.987480912929868
 20
116.89791385732619
 11
56.987480912929868
 21
114.19174957871019
  0
LINE
  8
_0-4_TEXT
  6
CONTINUOUS
 62
    7
 10
63.74999872874514
 20
115.8529466723779
 11
65.249998728745169
 21
115.85294667237778
  0
LINE
  8
_0-6_JISSEN
  6
CONTINUOUS
 62
    7
 10
63.74999872874514
 20
115.34169967453329
 11
63.74999872874514
 21
114.19174957871019
  0
LINE
  8
_0-4_TEXT
  6
CONTINUOUS
 62
    7
 10
63.24999872874514
 20
116.3529466723779
 11
65.249998728745169
 21
116.3529466723779
  0
LINE
  8
_0-6_JISSEN
  6
CONTINUOUS
 62
    7
 10
63.24999872874514
 20
115.84169967453329
 11
63.74999872874514
 21
115.34169967453329
  0
LINE
  8
_0-6_JISSEN
  6
CONTINUOUS
 62
    7
 10
63.24999872874514
 20
115.84169967453329
 11
63.24999872874514
 21
116.89791385732619
  0
LINE
  8
_0-5_SAISEN
  6
CONTINUOUS
 62
    4
 10
63.549998728745265
 20
116.89791385732619
 11
63.549998728745265
 21
115.54169967453328
  0
LINE
  8
_0-6_JISSEN
  6
CONTINUOUS
 62
    7
 10
61.576007123045542
 20
116.89791385732619
 11
61.576007123045542
 21
114.19174957871019
  0
LINE
  8
_0-3_SUNPOU
  6
CONTINUOUS
 62
    7
 10
50.099915290728859
 20
129.89791385732619
 11
65.249998728745169
 21
129.89791385732619
  0
ARC
  8
_0-6_JISSEN
  6
CONTINUOUS
 62
    7
 10
54.49999872874514
 20
122.8979138573267
 40
2.5000000000000089
 50
65.664120666860626
 51
180
  0
LINE
  8
_0-6_JISSEN
  6
CONTINUOUS
 62
    7
 10
50.099998728745049
 20
125.89791385732619
 11
54.247663646226755
 21
125.89791385732588
  0
LINE
  8
_0-4_TEXT
  6
CONTINUOUS
 62
    7
 10
50.099998728745163
 20
117.33092655921789
 11
65.249998728745169
 21
117.33092655921789
  0
LINE
  8
_0-6_JISSEN
  6
CONTINUOUS
 62
    7
 10
65.249998728745169
 20
116.89791385732619
 11
50.349998728745163
 21
116.89791385732619
  0
LINE
  8
_0-6_JISSEN
  6
CONTINUOUS
 62
    7
 10
65.249998728745169
 20
114.19174957871019
 11
51.149998728745175
 21
114.19174957871019
  0
LINE
  8
_0-6_JISSEN
  6
CONTINUOUS
 62
    7
 10
51.149998728745175
 20
113.9917495787102
 11
65.249998728745169
 21
113.9917495787102
  0
LINE
  8
_0-6_JISSEN
  6
CONTINUOUS
 62
    7
 10
65.249998728745169
 20
114.19174957871019
 11
51.149998728745175
 21
114.19174957871019
  0
LINE
  8
_0-6_JISSEN
  6
CONTINUOUS
 62
    7
 10
54.527486484985275
 20
138.49999915715819
 11
46.999998728745368
 21
138.49999915715819
  0
LINE
  8
_0-6_JISSEN
  6
CONTINUOUS
 62
    7
 10
62.749998728744657
 20
132.44999915715238
 11
51.499998728745368
 21
132.44999915715238
  0
LINE
  8
_0-6_JISSEN
  6
CONTINUOUS
 62
    7
 10
62.749998728744657
 20
131.54999915715368
 11
51.499998728745368
 21
131.54999915715328
  0
LINE
  8
_0-6_JISSEN
  6
CONTINUOUS
 62
    7
 10
51.499998728745368
 20
130.9999991571531
 11
62.749998728744657
 21
130.9999991571531
  0
LINE
  8
_0-6_JISSEN
  6
CONTINUOUS
 62
    7
 10
62.749998728744657
 20
133.94999915715238
 11
51.499998728745368
 21
133.94999915715238
  0
LINE
  8
_0-6_JISSEN
  6
CONTINUOUS
 62
    7
 10
51.499998728745368
 20
133.04999915714637
 11
62.749998728744657
 21
133.04999915714919
  0
LINE
  8
_0-6_JISSEN
  6
CONTINUOUS
 62
    7
 10
51.499998728745368
 20
134.5499991571528
 11
62.749998728744657
 21
134.5499991571503
  0
LINE
  8
_0-6_JISSEN
  6
CONTINUOUS
 62
    7
 10
65.249998728745169
 20
130.4999991571531
 11
48.24999872874605
 21
130.49999915715279
  0
LINE
  8
_0-6_JISSEN
  6
CONTINUOUS
 62
    7
 10
51.499998728745368
 20
135.99999915715298
 11
62.749998728744657
 21
135.99999915715298
  0
LINE
  8
_0-6_JISSEN
  6
CONTINUOUS
 62
    7
 10
62.749998728744657
 20
135.44999915716039
 11
51.499998728745368
 21
135.44999915716039
  0
LINE
  8
_0-6_JISSEN
  6
CONTINUOUS
 62
    7
 10
48.24999872874605
 20
136.49999915715279
 11
65.249998728745169
 21
136.4999991571531
  0
ARC
  8
_0-6_JISSEN
  6
CONTINUOUS
 62
    7
 10
54.49999872874514
 20
122.8979138573267
 40
0.5
 50
50.765995579327651
 51
180
  0
LINE
  8
_0-6_JISSEN
  6
CONTINUOUS
 62
    7
 10
54.24766364622667
 20
122.89791385732619
 11
53.964082918122159
 21
122.89791385732619
  0
LINE
  8
_0-6_JISSEN
  6
CONTINUOUS
 62
    7
 10
53.74999872874514
 20
125.39791385732659
 11
55.365697634976158
 21
125.39791385732659
  0
LINE
  8
_0-6_JISSEN
  6
CONTINUOUS
 62
    7
 10
53.49999872874605
 20
136.49999915715208
 11
54.496113503938147
 21
137.49611393234449
  0
LINE
  8
_0-6_JISSEN
  6
CONTINUOUS
 62
    7
 10
54.496113503938147
 20
137.49611393234449
 11
54.683744293505555
 21
143.4999991571525
  0
LINE
  8
_0-5_SAISEN
  6
CONTINUOUS
 62
    4
 10
55.781225303184158
 20
139.4999991571531
 11
55.906231550000456
 21
143.4999991571525
  0
LINE
  8
_0-6_JISSEN
  6
CONTINUOUS
 62
    7
 10
31.249998728743805
 20
110.99634672031507
 11
31.249998728743805
 21
111.49999915715259
  0
LINE
  8
_0-6_JISSEN
  6
CONTINUOUS
 62
    7
 10
34.079534764188054
 20
109.64935323682249
 11
32.072083026455459
 21
110.0123009882077
  0
ARC
  8
_0-6_JISSEN
  6
CONTINUOUS
 62
    7
 10
32.249998728744742
 20
110.99634672031507
 40
1
 50
179.99999999997388
 51
259.75162116555356
  0
ARC
  8
_0-6_JISSEN
  6
CONTINUOUS
 62
    7
 10
45.749998728747158
 20
111.09607584459928
 40
1
 50
259.7516211655801
 51
0.0000000000032187
  0
LINE
  8
_0-6_JISSEN
  6
CONTINUOUS
 62
    7
 10
48.199998728742457
 20
106.4999991571525
 11
48.316987937668955
 21
106.49999915715429
  0
ARC
  8
_0-6_JISSEN
  6
CONTINUOUS
 62
    7
 10
48.316987937668955
 20
106.69999915715439
 40
0.2
 50
270
 51
354.92039214003148
  0
ARC
  8
_0-6_JISSEN
  6
CONTINUOUS
 62
    7
 10
54.051666076895458
 20
107.58881876982818
 40
1.340962879392062
 50
142.9939697501317
 51
166.4699450128802
  0
LINE
  8
_0-6_JISSEN
  6
CONTINUOUS
 62
    7
 10
52.747918496599809
 20
107.90254427210789
 11
52.747918496599809
 21
107.90254427210789
  0
LINE
  8
_0-6_JISSEN
  6
CONTINUOUS
 62
    7
 10
52.747918496599809
 20
107.90254427210789
 11
52.81734136188242
 21
107.69121472442447
  0
LINE
  8
_0-6_JISSEN
  6
CONTINUOUS
 62
    7
 10
52.81734136188242
 20
107.69121472442447
 11
52.909760379725547
 21
107.47287505006672
  0
LINE
  8
_0-6_JISSEN
  6
CONTINUOUS
 62
    7
 10
52.909760379725547
 20
107.47287505006672
 11
52.911846996315617
 21
107.46843573217217
  0
ARC
  8
_0-6_JISSEN
  6
CONTINUOUS
 62
    7
 10
53.051084796421776
 20
108.3429759671682
 40
0.0879999999999999
 50
65.5355231717609
 51
142.99396975011084
  0
ARC
  8
_0-6_JISSEN
  6
CONTINUOUS
 62
    7
 10
51.74999872874514
 20
108.77777736909599
 40
0.2999999999999999
 50
180
 51
207.00000000000179
  0
ARC
  8
_0-6_JISSEN
  6
CONTINUOUS
 62
    7
 10
53.872558886373156
 20
104.39174957871009
 40
0.2
 50
207.00000000000179
 51
270
  0
LINE
  8
_0-6_JISSEN
  6
CONTINUOUS
 62
    7
 10
51.482696771488662
 20
108.64158021917419
 11
53.694357581535456
 21
104.3009514787623
  0
LINE
  8
_0-6_JISSEN
  6
CONTINUOUS
 62
    7
 10
31.249998728743805
 20
111.49999915715259
 11
46.749998728747158
 21
111.49999915715259
  0
LINE
  8
_0-6_JISSEN
  6
CONTINUOUS
 62
    7
 10
45.572083026458358
 20
110.11203011249179
 11
37.895273182668745
 21
111.49999915715259
  0
LINE
  8
_0-6_JISSEN
  6
CONTINUOUS
 62
    7
 10
46.59999872874775
 20
84.499999157093981
 11
45.599998728742349
 21
84.499999157096681
  0
ARC
  8
_0-6_JISSEN
  6
CONTINUOUS
 62
    7
 10
45.599998728743259
 20
85.999999157095786
 40
1.4999999999990901
 50
179.99999999911401
 51
269.99999999984362
  0
LINE
  8
_0-6_JISSEN
  6
CONTINUOUS
 62
    7
 10
48.099998728742349
 20
87.499999157093484
 11
48.099998728742349
 21
85.999999157157589
  0
ARC
  8
_0-6_JISSEN
  6
CONTINUOUS
 62
    7
 10
46.599998728742349
 20
85.999999157157589
 40
1.5
 50
269.99999999984362
 51
0
  0
LINE
  8
_0-6_JISSEN
  6
CONTINUOUS
 62
    7
 10
44.09999872874414
 20
85.999999157095786
 11
44.09999872874414
 21
95.499999157158086
  0
ARC
  8
_0-6_JISSEN
  6
CONTINUOUS
 62
    7
 10
29.099998728744197
 20
95.499999157158086
 40
15
 50
0.000000000000007
 51
70.611666382699582
  0
LINE
  8
_0-6_JISSEN
  6
CONTINUOUS
 62
    7
 10
48.099998728742548
 20
106.49999915715438
 11
48.099998728742349
 21
87.499999157093484
  0
ARC
  8
_0-6_JISSEN
  6
CONTINUOUS
 62
    7
 10
58.709409092768652
 20
107.1821045398257
 40
1.375879154787482
 50
114.4167034614543
 51
165.01444330966612
  0
LINE
  8
_0-6_JISSEN
  6
CONTINUOUS
 62
    7
 10
57.380322157727619
 20
107.53787323951956
 11
57.380322157727619
 21
107.53787323951956
  0
LINE
  8
_0-6_JISSEN
  6
CONTINUOUS
 62
    7
 10
57.380322157727619
 20
107.53787323951956
 11
57.406113436908512
 21
107.309583303742
  0
LINE
  8
_0-6_JISSEN
  6
CONTINUOUS
 62
    7
 10
57.406113436908512
 20
107.309583303742
 11
57.465103886531701
 21
107.0849141749283
  0
LINE
  8
_0-6_JISSEN
  6
CONTINUOUS
 62
    7
 10
57.465103886531701
 20
107.0849141749283
 11
57.472455512886356
 21
107.063790072907
  0
ARC
  8
_0-6_JISSEN
  6
CONTINUOUS
 62
    7
 10
65.249998728745169
 20
107.01362859898109
 40
1.503191537583755
 50
90
 51
176.26571619777661
  0
LINE
  8
_0-2_HATCH
  6
CONTINUOUS
 62
    4
 10
55.999998728745254
 20
101.9417495787103
 11
55.999998728745254
 21
101.7917495787103
  0
LINE
  8
_0-6_JISSEN
  6
CONTINUOUS
 62
    7
 10
55.717352761794757
 20
104.49174957871008
 11
54.705579901947374
 21
104.49174957871008
  0
LINE
  8
_0-6_JISSEN
  6
CONTINUOUS
 62
    7
 10
60.416465687187753
 20
104.49174957871008
 11
58.387574173006158
 21
104.49174957871008
  0
ARC
  8
_0-2_HATCH
  6
CONTINUOUS
 62
    4
 10
57.749998728745254
 20
101.9417495787103
 40
0.2999999999998692
 50
90
 51
180.00000000000321
  0
ARC
  8
_0-2_HATCH
  6
CONTINUOUS
 62
    4
 10
57.24999872874514
 20
97.691749578710301
 40
0.2999999999999999
 50
199.47122063488749
 51
270
  0
LINE
  8
_0-2_HATCH
  6
CONTINUOUS
 62
    4
 10
55.99999872874514
 20
97.591749578710278
 11
55.99999872874514
 21
97.891749578710176
  0
LINE
  8
_0-2_HATCH
  6
CONTINUOUS
 62
    4
 10
55.99999872874514
 20
97.591749578710278
 11
55.99999872874514
 21
97.891749578710176
  0
LINE
  8
_0-2_HATCH
  6
CONTINUOUS
 62
    4
 10
55.999998728745254
 20
99.941749578710187
 11
55.999998728745254
 21
100.09174957871019
  0
ARC
  8
_0-2_HATCH
  6
CONTINUOUS
 62
    4
 10
57.749998728745254
 20
99.941749578710187
 40
0.2999999999998692
 50
180
 51
270
  0
LINE
  8
_0-2_HATCH
  6
CONTINUOUS
 62
    4
 10
63.149998728745345
 20
104.1917495787103
 11
63.149998728745345
 21
102.24174957871028
  0
ARC
  8
_0-2_HATCH
  6
CONTINUOUS
 62
    4
 10
62.049998728745351
 20
101.59174957871028
 40
0.2
 50
0.000000000000007
 51
90.000000000000014
  0
LINE
  8
_0-2_HATCH
  6
CONTINUOUS
 62
    4
 10
62.249998728745254
 20
101.59174957871028
 11
62.249998728745254
 21
101.29174957871018
  0
LINE
  8
_0-6_JISSEN
  6
CONTINUOUS
 62
    7
 10
65.249998728745169
 20
104.49174957871008
 11
63.749998728745254
 21
104.49174957871008
  0
LINE
  8
_0-2_HATCH
  6
CONTINUOUS
 62
    4
 10
62.249998728745254
 20
100.29174957871018
 11
62.249998728745254
 21
100.59174957871019
  0
ARC
  8
_0-2_HATCH
  6
CONTINUOUS
 62
    4
 10
62.049998728745351
 20
100.29174957871018
 40
0.2
 50
270
 51
0
  0
LINE
  8
_0-2_HATCH
  6
CONTINUOUS
 62
    4
 10
62.449998728745157
 20
98.091749578710392
 11
62.449998728745157
 21
97.991749578710085
  0
LINE
  8
_0-2_HATCH
  6
CONTINUOUS
 62
    4
 10
63.149998728745345
 20
99.641749578710176
 11
63.149998728745345
 21
98.391749578710176
  0
ARC
  8
_0-2_HATCH
  6
CONTINUOUS
 62
    4
 10
62.349998728745163
 20
97.991749578710085
 40
0.1
 50
270
 51
0
  0
ARC
  8
_0-2_HATCH
  6
CONTINUOUS
 62
    4
 10
62.749998728745254
 20
98.091749578710278
 40
0.2999999999999999
 50
90
 51
179.99999999998366
  0
ARC
  8
_0-2_HATCH
  6
CONTINUOUS
 62
    4
 10
62.599998728745277
 20
100.59174957871019
 40
0.3499999999999999
 50
90
 51
180
  0
LINE
  8
_0-2_HATCH
  6
CONTINUOUS
 62
    4
 10
65.249998728745169
 20
100.94174957871019
 11
62.599998728745277
 21
100.94174957871019
  0
LINE
  8
_0-2_HATCH
  6
CONTINUOUS
 62
    4
 10
62.74999872874514
 20
98.391749578710176
 11
65.249998728745169
 21
98.391749578710176
  0
ARC
  8
_0-2_HATCH
  6
CONTINUOUS
 62
    4
 10
62.599998728745277
 20
101.29174957871018
 40
0.3499999999999999
 50
180
 51
270
  0
LINE
  8
_0-2_HATCH
  6
CONTINUOUS
 62
    4
 10
65.249998728745169
 20
101.94174957871019
 11
55.999998728745254
 21
101.94174957871019
  0
LINE
  8
_0-2_HATCH
  6
CONTINUOUS
 62
    4
 10
65.249998728745169
 20
102.24174957871028
 11
57.749998728745254
 21
102.24174957871028
  0
LINE
  8
_0-2_HATCH
  6
CONTINUOUS
 62
    4
 10
65.249998728745169
 20
101.79174957871018
 11
55.999998728745254
 21
101.7917495787103
  0
LINE
  8
_0-2_HATCH
  6
CONTINUOUS
 62
    4
 10
65.249998728745169
 20
97.391749578710176
 11
57.24999872874514
 21
97.391749578710176
  0
LINE
  8
_0-2_HATCH
  6
CONTINUOUS
 62
    4
 10
65.249998728745169
 20
97.591749578710278
 11
55.99999872874514
 21
97.591749578710278
  0
LINE
  8
_0-2_HATCH
  6
CONTINUOUS
 62
    4
 10
55.99999872874514
 20
97.891749578710176
 11
65.249998728745169
 21
97.891749578710176
  0
LINE
  8
_0-2_HATCH
  6
CONTINUOUS
 62
    4
 10
65.249998728745169
 20
99.641749578710176
 11
57.749998728745254
 21
99.641749578710176
  0
LINE
  8
_0-2_HATCH
  6
CONTINUOUS
 62
    4
 10
65.249998728745169
 20
99.941749578710301
 11
55.999998728745254
 21
99.941749578710301
  0
LINE
  8
_0-2_HATCH
  6
CONTINUOUS
 62
    4
 10
65.249998728745169
 20
100.09174957871019
 11
55.999998728745254
 21
100.09174957871019
  0
LINE
  8
_0-6_JISSEN
  6
CONTINUOUS
 62
    7
 10
60.416465687187667
 20
104.49174957871008
 11
59.273399542103448
 21
107.70446126389979
  0
LINE
  8
_0-6_JISSEN
  6
CONTINUOUS
 62
    7
 10
63.749998728745254
 20
104.49174957871008
 11
63.749998728745254
 21
107.11153058396508
  0
LINE
  8
_0-6_JISSEN
  6
CONTINUOUS
 62
    7
 10
58.387574173006158
 20
104.49174957871008
 11
57.472455512900069
 21
107.06379007286819
  0
ARC
  8
_0-6_JISSEN
  6
CONTINUOUS
 62
    7
 10
63.749998728744657
 20
85.999999157094891
 40
1.4999999999990901
 50
0.000000000000007
 51
90.000000000000014
  0
LINE
  8
_0-6_JISSEN
  6
CONTINUOUS
 62
    7
 10
63.749998728744856
 20
97.391749578710176
 11
63.749998728743776
 21
87.499999157093981
  0
LINE
  8
_0-6_JISSEN
  6
CONTINUOUS
 62
    7
 10
63.749998728744657
 20
87.499999157093981
 11
48.099998728742349
 21
87.499999157093981
  0
LINE
  8
_0-6_JISSEN
  6
CONTINUOUS
 62
    7
 10
65.249998728744856
 20
84.499999157157589
 11
45.599998728743259
 21
84.499999157157589
  0
LINE
  8
_0-6_JISSEN
  6
CONTINUOUS
 62
    7
 10
65.249998728745254
 20
104.19174957871019
 11
53.872558886373156
 21
104.19174957871019
  0
LINE
  8
_0-6_JISSEN
  6
CONTINUOUS
 62
    7
 10
55.717352761794757
 20
104.49174957871008
 11
53.676708992730255
 21
107.87818243749908
  0
LINE
  8
_0-6_JISSEN
  6
CONTINUOUS
 62
    7
 10
54.70557990194726
 20
104.49174957871008
 11
52.911846996315546
 21
107.4684357321722
  0
LINE
  8
_0-6_JISSEN
  6
CONTINUOUS
 62
    7
 10
51.452403446002563
 20
108.73986895724099
 11
65.249998728745169
 21
108.73986895724099
  0
LINE
  8
_0-6_JISSEN
  6
CONTINUOUS
 62
    7
 10
48.516202465808135
 20
106.68229119909768
 11
49.499998728743549
 21
117.74999915717268
  0
LINE
  8
_0-6_JISSEN
  6
CONTINUOUS
 62
    7
 10
46.749998728747158
 20
111.09607584459928
 11
46.749998728745368
 21
138.24999915715819
  0
LINE
  8
_0-6_JISSEN
  6
CONTINUOUS
 62
    7
 10
51.449998728745157
 20
113.09174957871028
 11
51.449998728745157
 21
108.77777736909599
  0
LINE
  8
_0-6_JISSEN
  6
CONTINUOUS
 62
    7
 10
79.04999872874447
 20
113.09174957871028
 11
79.04999872874447
 21
108.77777736909599
  0
LINE
  8
_0-6_JISSEN
  6
CONTINUOUS
 62
    7
 10
83.749998728742469
 20
111.09607584459928
 11
83.749998728744259
 21
138.24999915715819
  0
LINE
  8
_0-6_JISSEN
  6
CONTINUOUS
 62
    7
 10
81.983794991681464
 20
106.68229119909768
 11
80.99999872874605
 21
117.74999915717268
  0
LINE
  8
_0-6_JISSEN
  6
CONTINUOUS
 62
    7
 10
79.047594011487064
 20
108.73986895724099
 11
65.249998728744458
 21
108.73986895724099
  0
LINE
  8
_0-6_JISSEN
  6
CONTINUOUS
 62
    7
 10
75.794417555542367
 20
104.49174957871008
 11
77.588150461174052
 21
107.4684357321722
  0
LINE
  8
_0-6_JISSEN
  6
CONTINUOUS
 62
    7
 10
74.78264469569487
 20
104.49174957871008
 11
76.823288464759344
 21
107.87818243749908
  0
LINE
  8
_0-6_JISSEN
  6
CONTINUOUS
 62
    7
 10
65.249998728744345
 20
104.19174957871019
 11
76.627438571116443
 21
104.19174957871019
  0
LINE
  8
_0-6_JISSEN
  6
CONTINUOUS
 62
    7
 10
65.249998728744856
 20
84.499999157157589
 11
84.899998728746368
 21
84.499999157157589
  0
LINE
  8
_0-6_JISSEN
  6
CONTINUOUS
 62
    7
 10
66.74999872874497
 20
87.499999157093981
 11
82.399998728747249
 21
87.499999157093981
  0
LINE
  8
_0-6_JISSEN
  6
CONTINUOUS
 62
    7
 10
66.749998728744742
 20
97.391749578710176
 11
66.749998728745851
 21
87.499999157093981
  0
ARC
  8
_0-6_JISSEN
  6
CONTINUOUS
 62
    7
 10
66.74999872874497
 20
85.999999157094891
 40
1.4999999999990901
 50
90
 51
180
  0
LINE
  8
_0-6_JISSEN
  6
CONTINUOUS
 62
    7
 10
72.112423284483469
 20
104.49174957871008
 11
73.027541944589558
 21
107.06379007286819
  0
LINE
  8
_0-6_JISSEN
  6
CONTINUOUS
 62
    7
 10
66.749998728744345
 20
104.49174957871008
 11
66.749998728744345
 21
107.11153058396508
  0
LINE
  8
_0-6_JISSEN
  6
CONTINUOUS
 62
    7
 10
70.08353177030196
 20
104.49174957871008
 11
71.226597915386151
 21
107.70446126389979
  0
LINE
  8
_0-2_HATCH
  6
CONTINUOUS
 62
    4
 10
65.249998728744458
 20
100.09174957871019
 11
74.499998728744345
 21
100.09174957871019
  0
LINE
  8
_0-2_HATCH
  6
CONTINUOUS
 62
    4
 10
65.249998728744458
 20
99.941749578710301
 11
74.499998728744345
 21
99.941749578710301
  0
LINE
  8
_0-2_HATCH
  6
CONTINUOUS
 62
    4
 10
65.249998728744458
 20
99.641749578710176
 11
72.749998728744345
 21
99.641749578710176
  0
LINE
  8
_0-2_HATCH
  6
CONTINUOUS
 62
    4
 10
74.499998728744458
 20
97.891749578710176
 11
65.249998728744458
 21
97.891749578710176
  0
LINE
  8
_0-2_HATCH
  6
CONTINUOUS
 62
    4
 10
65.249998728744458
 20
97.591749578710278
 11
74.499998728744458
 21
97.591749578710278
  0
LINE
  8
_0-2_HATCH
  6
CONTINUOUS
 62
    4
 10
65.249998728744458
 20
97.391749578710176
 11
73.249998728744458
 21
97.391749578710176
  0
LINE
  8
_0-2_HATCH
  6
CONTINUOUS
 62
    4
 10
65.249998728744458
 20
101.79174957871018
 11
74.499998728744345
 21
101.7917495787103
  0
LINE
  8
_0-2_HATCH
  6
CONTINUOUS
 62
    4
 10
65.249998728744458
 20
102.24174957871028
 11
72.749998728744345
 21
102.24174957871028
  0
LINE
  8
_0-2_HATCH
  6
CONTINUOUS
 62
    4
 10
65.249998728744458
 20
101.94174957871019
 11
74.499998728744345
 21
101.94174957871019
  0
ARC
  8
_0-2_HATCH
  6
CONTINUOUS
 62
    4
 10
67.89999872874435
 20
101.29174957871018
 40
0.3499999999999999
 50
270
 51
0
  0
LINE
  8
_0-2_HATCH
  6
CONTINUOUS
 62
    4
 10
67.749998728744458
 20
98.391749578710176
 11
65.249998728744458
 21
98.391749578710176
  0
LINE
  8
_0-2_HATCH
  6
CONTINUOUS
 62
    4
 10
65.249998728744458
 20
100.94174957871019
 11
67.89999872874435
 21
100.94174957871019
  0
ARC
  8
_0-2_HATCH
  6
CONTINUOUS
 62
    4
 10
67.89999872874435
 20
100.59174957871019
 40
0.3499999999999999
 50
0
 51
90
  0
ARC
  8
_0-2_HATCH
  6
CONTINUOUS
 62
    4
 10
67.749998728744345
 20
98.091749578710278
 40
0.2999999999999999
 50
0.0000000000162844
 51
90
  0
ARC
  8
_0-2_HATCH
  6
CONTINUOUS
 62
    4
 10
68.149998728744464
 20
97.991749578710085
 40
0.1
 50
180
 51
270
  0
LINE
  8
_0-2_HATCH
  6
CONTINUOUS
 62
    4
 10
67.349998728744254
 20
99.641749578710176
 11
67.349998728744254
 21
98.391749578710176
  0
LINE
  8
_0-2_HATCH
  6
CONTINUOUS
 62
    4
 10
68.04999872874447
 20
98.091749578710392
 11
68.04999872874447
 21
97.991749578710085
  0
ARC
  8
_0-2_HATCH
  6
CONTINUOUS
 62
    4
 10
68.449998728744248
 20
100.29174957871018
 40
0.2
 50
180
 51
270
  0
LINE
  8
_0-2_HATCH
  6
CONTINUOUS
 62
    4
 10
68.249998728744345
 20
100.29174957871018
 11
68.249998728744345
 21
100.59174957871019
  0
LINE
  8
_0-6_JISSEN
  6
CONTINUOUS
 62
    7
 10
65.249998728744458
 20
104.49174957871008
 11
66.749998728744345
 21
104.49174957871008
  0
LINE
  8
_0-2_HATCH
  6
CONTINUOUS
 62
    4
 10
68.249998728744345
 20
101.59174957871028
 11
68.249998728744345
 21
101.29174957871018
  0
ARC
  8
_0-2_HATCH
  6
CONTINUOUS
 62
    4
 10
68.449998728744248
 20
101.59174957871028
 40
0.2
 50
90
 51
180
  0
LINE
  8
_0-2_HATCH
  6
CONTINUOUS
 62
    4
 10
67.349998728744254
 20
104.1917495787103
 11
67.349998728744254
 21
102.24174957871028
  0
ARC
  8
_0-2_HATCH
  6
CONTINUOUS
 62
    4
 10
72.749998728744345
 20
99.941749578710187
 40
0.2999999999998692
 50
270
 51
0
  0
LINE
  8
_0-2_HATCH
  6
CONTINUOUS
 62
    4
 10
74.499998728744345
 20
99.941749578710187
 11
74.499998728744345
 21
100.09174957871019
  0
LINE
  8
_0-2_HATCH
  6
CONTINUOUS
 62
    4
 10
74.499998728744458
 20
97.591749578710278
 11
74.499998728744458
 21
97.891749578710176
  0
LINE
  8
_0-2_HATCH
  6
CONTINUOUS
 62
    4
 10
74.499998728744458
 20
97.591749578710278
 11
74.499998728744458
 21
97.891749578710176
  0
ARC
  8
_0-2_HATCH
  6
CONTINUOUS
 62
    4
 10
73.249998728744458
 20
97.691749578710301
 40
0.2999999999999999
 50
270
 51
340.52877936511243
  0
ARC
  8
_0-2_HATCH
  6
CONTINUOUS
 62
    4
 10
72.749998728744345
 20
101.9417495787103
 40
0.2999999999998692
 50
359.99999999999676
 51
90.000000000000043
  0
LINE
  8
_0-6_JISSEN
  6
CONTINUOUS
 62
    7
 10
70.083531770301846
 20
104.49174957871008
 11
72.112423284483469
 21
104.49174957871008
  0
LINE
  8
_0-6_JISSEN
  6
CONTINUOUS
 62
    7
 10
74.78264469569487
 20
104.49174957871008
 11
75.794417555542253
 21
104.49174957871008
  0
LINE
  8
_0-2_HATCH
  6
CONTINUOUS
 62
    4
 10
74.499998728744345
 20
101.9417495787103
 11
74.499998728744345
 21
101.7917495787103
  0
ARC
  8
_0-6_JISSEN
  6
CONTINUOUS
 62
    7
 10
65.249998728744458
 20
107.01362859898109
 40
1.503191537583755
 50
3.734283802223318
 51
90
  0
LINE
  8
_0-6_JISSEN
  6
CONTINUOUS
 62
    7
 10
71.203223355593721
 20
108.21991420880389
 11
71.203223355593721
 21
108.21991420880389
  0
LINE
  8
_0-6_JISSEN
  6
CONTINUOUS
 62
    7
 10
71.203223355593721
 20
108.21991420880389
 11
71.078991687923434
 21
108.02665796024522
  0
LINE
  8
_0-6_JISSEN
  6
CONTINUOUS
 62
    7
 10
71.078991687923434
 20
108.02665796024522
 11
70.982782333753946
 21
107.81523456806985
  0
LINE
  8
_0-6_JISSEN
  6
CONTINUOUS
 62
    7
 10
70.982782333753946
 20
107.81523456806985
 11
70.97513572120161
 21
107.79421544789942
  0
ARC
  8
_0-6_JISSEN
  6
CONTINUOUS
 62
    7
 10
71.790588364720946
 20
107.1821045398257
 40
1.375879154787482
 50
14.98555669033386
 51
65.583296538545611
  0
LINE
  8
_0-6_JISSEN
  6
CONTINUOUS
 62
    7
 10
82.39999872874705
 20
106.49999915715438
 11
82.399998728747249
 21
87.499999157093484
  0
ARC
  8
_0-6_JISSEN
  6
CONTINUOUS
 62
    7
 10
101.39999872874546
 20
95.499999157158086
 40
15
 50
109.3883336173004
 51
180
  0
LINE
  8
_0-6_JISSEN
  6
CONTINUOUS
 62
    7
 10
86.399998728745459
 20
85.999999157095786
 11
86.399998728745459
 21
95.499999157158086
  0
ARC
  8
_0-6_JISSEN
  6
CONTINUOUS
 62
    7
 10
83.899998728747249
 20
85.999999157157589
 40
1.5
 50
180
 51
270.00000000015632
  0
LINE
  8
_0-6_JISSEN
  6
CONTINUOUS
 62
    7
 10
82.399998728747249
 20
87.499999157093484
 11
82.399998728747249
 21
85.999999157157589
  0
ARC
  8
_0-6_JISSEN
  6
CONTINUOUS
 62
    7
 10
84.899998728746368
 20
85.999999157095786
 40
1.4999999999990901
 50
270.00000000015632
 51
0.0000000008858608
  0
LINE
  8
_0-6_JISSEN
  6
CONTINUOUS
 62
    7
 10
83.899998728741849
 20
84.499999157093981
 11
84.899998728747249
 21
84.499999157096681
  0
LINE
  8
_0-6_JISSEN
  6
CONTINUOUS
 62
    7
 10
84.927914431031269
 20
110.11203011249179
 11
92.604724274820853
 21
111.49999915715259
  0
LINE
  8
_0-6_JISSEN
  6
CONTINUOUS
 62
    7
 10
99.249998728745851
 20
111.49999915715259
 11
92.604724274820853
 21
111.49999915715259
  0
LINE
  8
_0-6_JISSEN
  6
CONTINUOUS
 62
    7
 10
79.017300686000965
 20
108.64158021917419
 11
76.805639875954142
 21
104.3009514787623
  0
ARC
  8
_0-6_JISSEN
  6
CONTINUOUS
 62
    7
 10
76.627438571116443
 20
104.39174957871009
 40
0.2
 50
270
 51
332.99999999999818
  0
ARC
  8
_0-6_JISSEN
  6
CONTINUOUS
 62
    7
 10
78.749998728744458
 20
108.77777736909599
 40
0.2999999999999999
 50
332.99999999999818
 51
0
  0
ARC
  8
_0-6_JISSEN
  6
CONTINUOUS
 62
    7
 10
77.448912661067851
 20
108.3429759671682
 40
0.0879999999999999
 50
37.006030249889079
 51
114.4644768282391
  0
LINE
  8
_0-6_JISSEN
  6
CONTINUOUS
 62
    7
 10
76.930597622620922
 20
108.39756391201986
 11
76.930597622620922
 21
108.39756391201986
  0
LINE
  8
_0-6_JISSEN
  6
CONTINUOUS
 62
    7
 10
76.930597622620922
 20
108.39756391201986
 11
76.776188761237051
 21
108.23744640681116
  0
LINE
  8
_0-6_JISSEN
  6
CONTINUOUS
 62
    7
 10
76.776188761237051
 20
108.23744640681116
 11
76.626326298552897
 21
108.05372180166536
  0
LINE
  8
_0-6_JISSEN
  6
CONTINUOUS
 62
    7
 10
76.626326298552897
 20
108.05372180166536
 11
76.623376237024559
 21
108.04980279041993
  0
ARC
  8
_0-6_JISSEN
  6
CONTINUOUS
 62
    7
 10
76.448331380594169
 20
107.58881876982818
 40
1.340962879392062
 50
13.530054987119808
 51
37.006030249868218
  0
ARC
  8
_0-6_JISSEN
  6
CONTINUOUS
 62
    7
 10
82.183009519820644
 20
106.69999915715439
 40
0.2
 50
185.07960785996832
 51
270
  0
LINE
  8
_0-6_JISSEN
  6
CONTINUOUS
 62
    7
 10
82.29999872874717
 20
106.4999991571525
 11
82.183009519820644
 21
106.49999915715429
  0
ARC
  8
_0-6_JISSEN
  6
CONTINUOUS
 62
    7
 10
84.749998728742469
 20
111.09607584459928
 40
1
 50
179.99999999999659
 51
280.24837883441978
  0
ARC
  8
_0-6_JISSEN
  6
CONTINUOUS
 62
    7
 10
98.24999872874497
 20
110.99634672031507
 40
1
 50
280.24837883444633
 51
0.0000000000260296
  0
LINE
  8
_0-6_JISSEN
  6
CONTINUOUS
 62
    7
 10
96.420462693301658
 20
109.64935323682249
 11
98.427914431034253
 21
110.0123009882077
  0
LINE
  8
_0-6_JISSEN
  6
CONTINUOUS
 62
    7
 10
99.249998728745851
 20
110.99634672031507
 11
99.249998728745851
 21
111.49999915715259
  0
LINE
  8
_0-5_SAISEN
  6
CONTINUOUS
 62
    4
 10
74.718772154305469
 20
139.4999991571531
 11
74.593765907489143
 21
143.4999991571525
  0
LINE
  8
_0-6_JISSEN
  6
CONTINUOUS
 62
    7
 10
76.003883953551451
 20
137.49611393234449
 11
75.816253163984044
 21
143.4999991571525
  0
LINE
  8
_0-6_JISSEN
  6
CONTINUOUS
 62
    7
 10
76.999998728743549
 20
136.49999915715208
 11
76.003883953551451
 21
137.49611393234449
  0
LINE
  8
_0-6_JISSEN
  6
CONTINUOUS
 62
    7
 10
76.749998728744458
 20
125.39791385732659
 11
75.134299822513469
 21
125.39791385732659
  0
LINE
  8
_0-6_JISSEN
  6
CONTINUOUS
 62
    7
 10
76.252333811262957
 20
122.89791385732619
 11
76.535914539367468
 21
122.89791385732619
  0
ARC
  8
_0-6_JISSEN
  6
CONTINUOUS
 62
    7
 10
75.999998728744458
 20
122.8979138573267
 40
0.5
 50
0
 51
129.23400442067231
  0
LINE
  8
_0-6_JISSEN
  6
CONTINUOUS
 62
    7
 10
82.249998728743549
 20
136.49999915715279
 11
65.249998728744458
 21
136.4999991571531
  0
LINE
  8
_0-6_JISSEN
  6
CONTINUOUS
 62
    7
 10
67.74999872874497
 20
135.44999915716039
 11
78.999998728744259
 21
135.44999915716039
  0
LINE
  8
_0-6_JISSEN
  6
CONTINUOUS
 62
    7
 10
78.999998728744259
 20
135.99999915715298
 11
67.74999872874497
 21
135.99999915715298
  0
LINE
  8
_0-6_JISSEN
  6
CONTINUOUS
 62
    7
 10
65.249998728744458
 20
130.4999991571531
 11
82.249998728743549
 21
130.49999915715279
  0
LINE
  8
_0-6_JISSEN
  6
CONTINUOUS
 62
    7
 10
78.999998728744259
 20
134.5499991571528
 11
67.74999872874497
 21
134.5499991571503
  0
LINE
  8
_0-6_JISSEN
  6
CONTINUOUS
 62
    7
 10
78.999998728744259
 20
133.04999915714637
 11
67.74999872874497
 21
133.04999915714919
  0
LINE
  8
_0-6_JISSEN
  6
CONTINUOUS
 62
    7
 10
67.74999872874497
 20
133.94999915715238
 11
78.999998728744259
 21
133.94999915715238
  0
LINE
  8
_0-6_JISSEN
  6
CONTINUOUS
 62
    7
 10
78.999998728744259
 20
130.9999991571531
 11
67.74999872874497
 21
130.9999991571531
  0
LINE
  8
_0-6_JISSEN
  6
CONTINUOUS
 62
    7
 10
67.74999872874497
 20
131.54999915715368
 11
78.999998728744259
 21
131.54999915715328
  0
LINE
  8
_0-6_JISSEN
  6
CONTINUOUS
 62
    7
 10
67.74999872874497
 20
132.44999915715238
 11
78.999998728744259
 21
132.44999915715238
  0
LINE
  8
_0-6_JISSEN
  6
CONTINUOUS
 62
    7
 10
75.972510972504352
 20
138.49999915715819
 11
83.499998728744259
 21
138.49999915715819
  0
LINE
  8
_0-6_JISSEN
  6
CONTINUOUS
 62
    7
 10
65.249998728744458
 20
114.19174957871019
 11
79.349998728744453
 21
114.19174957871019
  0
LINE
  8
_0-6_JISSEN
  6
CONTINUOUS
 62
    7
 10
79.349998728744453
 20
113.9917495787102
 11
65.249998728744458
 21
113.9917495787102
  0
LINE
  8
_0-6_JISSEN
  6
CONTINUOUS
 62
    7
 10
65.249998728744458
 20
114.19174957871019
 11
79.349998728744453
 21
114.19174957871019
  0
LINE
  8
_0-6_JISSEN
  6
CONTINUOUS
 62
    7
 10
65.249998728744458
 20
116.89791385732619
 11
80.149998728744464
 21
116.89791385732619
  0
LINE
  8
_0-4_TEXT
  6
CONTINUOUS
 62
    7
 10
80.399998728744464
 20
117.33092655921789
 11
65.249998728744458
 21
117.33092655921789
  0
LINE
  8
_0-6_JISSEN
  6
CONTINUOUS
 62
    7
 10
80.399998728744549
 20
125.89791385732619
 11
76.252333811262844
 21
125.89791385732588
  0
ARC
  8
_0-6_JISSEN
  6
CONTINUOUS
 62
    7
 10
75.999998728744458
 20
122.8979138573267
 40
2.5000000000000089
 50
0
 51
114.33587933313939
  0
LINE
  8
_0-3_SUNPOU
  6
CONTINUOUS
 62
    7
 10
80.400082166760768
 20
129.89791385732619
 11
65.249998728744458
 21
129.89791385732619
  0
LINE
  8
_0-6_JISSEN
  6
CONTINUOUS
 62
    7
 10
68.923990334444056
 20
116.89791385732619
 11
68.923990334444056
 21
114.19174957871019
  0
LINE
  8
_0-5_SAISEN
  6
CONTINUOUS
 62
    4
 10
66.949998728744362
 20
116.89791385732619
 11
66.949998728744362
 21
115.54169967453328
  0
LINE
  8
_0-6_JISSEN
  6
CONTINUOUS
 62
    7
 10
67.249998728744458
 20
115.84169967453329
 11
67.249998728744458
 21
116.89791385732619
  0
LINE
  8
_0-6_JISSEN
  6
CONTINUOUS
 62
    7
 10
67.249998728744458
 20
115.84169967453329
 11
66.749998728744458
 21
115.34169967453329
  0
LINE
  8
_0-4_TEXT
  6
CONTINUOUS
 62
    7
 10
67.249998728744458
 20
116.3529466723779
 11
65.249998728744458
 21
116.3529466723779
  0
LINE
  8
_0-6_JISSEN
  6
CONTINUOUS
 62
    7
 10
66.749998728744458
 20
115.34169967453329
 11
66.749998728744458
 21
114.19174957871019
  0
LINE
  8
_0-4_TEXT
  6
CONTINUOUS
 62
    7
 10
66.749998728744458
 20
115.8529466723779
 11
65.249998728744458
 21
115.85294667237778
  0
LINE
  8
_0-6_JISSEN
  6
CONTINUOUS
 62
    7
 10
73.512516544559759
 20
116.89791385732619
 11
73.512516544559759
 21
114.19174957871019
  0
LINE
  8
_0-6_JISSEN
  6
CONTINUOUS
 62
    7
 10
71.639998728744359
 20
114.19174957871019
 11
71.639998728744359
 21
116.89791385732619
  0
LINE
  8
_0-6_JISSEN
  6
CONTINUOUS
 62
    7
 10
70.323990334444062
 20
116.89791385732619
 11
70.323990334444147
 21
114.19174957871019
  0
ARC
  8
_0-6_JISSEN
  6
CONTINUOUS
 62
    7
 10
76.252333811262957
 20
124.39791385732619
 40
1.5
 50
90
 51
270
  0
LINE
  8
_0-6_JISSEN
  6
CONTINUOUS
 62
    7
 10
75.47521710681886
 20
123.11491361271439
 11
75.683754172526449
 21
123.28519848219889
  0
LINE
  8
_0-6_JISSEN
  6
CONTINUOUS
 62
    7
 10
67.74999872874497
 20
136.4999991571531
 11
67.74999872874497
 21
130.4999991571531
  0
LINE
  8
_0-6_JISSEN
  6
CONTINUOUS
 62
    7
 10
76.003883953551451
 20
137.49611393234449
 11
65.249998728744458
 21
137.49611393234539
  0
LINE
  8
_0-5_SAISEN
  6
CONTINUOUS
 62
    4
 10
76.003883953551451
 20
137.49611393234449
 11
74.718772154305469
 21
139.4999991571531
  0
LINE
  8
_0-6_JISSEN
  6
CONTINUOUS
 62
    7
 10
82.899998728741849
 20
137.89999915715347
 11
82.899998728744748
 21
122.49999915715819
  0
LINE
  8
_0-6_JISSEN
  6
CONTINUOUS
 62
    7
 10
80.399998728744549
 20
130.4999991571535
 11
80.399998728744549
 21
125.89791385732619
  0
LINE
  8
_0-6_JISSEN
  6
CONTINUOUS
 62
    7
 10
82.899998728744748
 20
122.49999915715759
 11
80.499998728745169
 21
120.09999915715898
  0
LINE
  8
_0-6_JISSEN
  6
CONTINUOUS
 62
    7
 10
80.399998728744464
 20
117.33092655921789
 11
80.399998728744464
 21
122.89791385732619
  0
LINE
  8
_0-6_JISSEN
  6
CONTINUOUS
 62
    7
 10
79.349998728744453
 20
114.19174957871019
 11
79.349998728744453
 21
113.99174957871008
  0
LINE
  8
_0-6_JISSEN
  6
CONTINUOUS
 62
    7
 10
79.349998728744453
 20
114.19174957871019
 11
79.349998728744453
 21
113.99174957871008
  0
ARC
  8
_0-6_JISSEN
  6
CONTINUOUS
 62
    7
 10
80.549998728744555
 20
113.09174957871028
 40
1.5
 50
143.13010235416243
 51
180.00000000000003
  0
LINE
  8
_0-6_JISSEN
  6
CONTINUOUS
 62
    7
 10
80.99999872874605
 20
117.74999915717268
 11
80.499998728745169
 21
117.74999915717268
  0
LINE
  8
_0-6_JISSEN
  6
CONTINUOUS
 62
    7
 10
80.149998728744464
 20
116.89791385732619
 11
80.399998728744464
 21
117.33092655921789
  0
LINE
  8
_0-6_JISSEN
  6
CONTINUOUS
 62
    7
 10
80.499998728745169
 20
120.09999915715898
 11
80.499998728745169
 21
117.74999915715767
  0
LINE
  8
_0-6_JISSEN
  6
CONTINUOUS
 62
    7
 10
76.499998728744544
 20
122.89791385732619
 11
80.399998728744464
 21
122.89791385732607
  0
LINE
  8
_0-6_JISSEN
  6
CONTINUOUS
 62
    7
 10
76.749998728744458
 20
125.89791385732588
 11
76.749998728744458
 21
125.39791385732659
  0
LINE
  8
_0-6_JISSEN
  6
CONTINUOUS
 62
    7
 10
81.499998728744345
 20
135.44999915716039
 11
81.499998728744345
 21
135.999999157161
  0
LINE
  8
_0-6_JISSEN
  6
CONTINUOUS
 62
    7
 10
82.749998728743549
 20
135.44999915715218
 11
82.749998728743549
 21
135.99999915715279
  0
LINE
  8
_0-6_JISSEN
  6
CONTINUOUS
 62
    7
 10
78.999998728750853
 20
135.99999915715298
 11
78.999998728744458
 21
135.44999915716059
  0
LINE
  8
_0-6_JISSEN
  6
CONTINUOUS
 62
    7
 10
80.494083828501545
 20
130.49999915715279
 11
80.494083828501545
 21
136.49999915715279
  0
LINE
  8
_0-6_JISSEN
  6
CONTINUOUS
 62
    7
 10
81.499998728744345
 20
135.44999915716039
 11
82.749998728743549
 21
135.44999915716039
  0
ARC
  8
_0-6_JISSEN
  6
CONTINUOUS
 62
    7
 10
82.937498728743549
 20
133.49999915715259
 40
0.4874999999996627
 50
112.6198649480387
 51
247.38013505195391
  0
LINE
  8
_0-6_JISSEN
  6
CONTINUOUS
 62
    7
 10
82.749998728743549
 20
133.04999915714549
 11
81.499998728744259
 21
133.04999915714569
  0
LINE
  8
_0-6_JISSEN
  6
CONTINUOUS
 62
    7
 10
82.749998728743549
 20
130.9999991571531
 11
81.499998728744259
 21
130.9999991571531
  0
LINE
  8
_0-6_JISSEN
  6
CONTINUOUS
 62
    7
 10
81.499998728744259
 20
132.44999915715218
 11
82.749998728743549
 21
132.44999915715218
  0
LINE
  8
_0-6_JISSEN
  6
CONTINUOUS
 62
    7
 10
81.499998728744259
 20
131.549999157153
 11
82.749998728743549
 21
131.549999157153
  0
LINE
  8
_0-6_JISSEN
  6
CONTINUOUS
 62
    7
 10
82.249998728743549
 20
130.49999915715279
 11
82.749998728743549
 21
130.9999991571529
  0
ARC
  8
_0-6_JISSEN
  6
CONTINUOUS
 62
    7
 10
82.937498728743549
 20
131.99999915715458
 40
0.4874999999996627
 50
112.6198649480387
 51
247.38013505195391
  0
LINE
  8
_0-6_JISSEN
  6
CONTINUOUS
 62
    7
 10
82.749998728743549
 20
134.54999915715368
 11
81.499998728744259
 21
134.54999915715348
  0
LINE
  8
_0-6_JISSEN
  6
CONTINUOUS
 62
    7
 10
81.499998728744259
 20
133.94999915715218
 11
82.749998728743549
 21
133.94999915715218
  0
ARC
  8
_0-6_JISSEN
  6
CONTINUOUS
 62
    7
 10
82.937498728743549
 20
134.99999915715259
 40
0.4874999999996627
 50
112.6198649480387
 51
247.38013505195391
  0
ARC
  8
_0-6_JISSEN
  6
CONTINUOUS
 62
    7
 10
79.449796533369664
 20
131.99999915716279
 40
0.6362531454111287
 50
134.98712495037344
 51
225.01287504961732
  0
ARC
  8
_0-6_JISSEN
  6
CONTINUOUS
 62
    7
 10
81.949796533369664
 20
131.99999915716279
 40
0.6362531454111287
 50
134.98712495037344
 51
225.01287504961732
  0
LINE
  8
_0-6_JISSEN
  6
CONTINUOUS
 62
    7
 10
78.599998728744254
 20
130.4999991571531
 11
78.999998728744259
 21
130.99999915716108
  0
LINE
  8
_0-6_JISSEN
  6
CONTINUOUS
 62
    7
 10
78.999998728754349
 20
131.54999915715328
 11
78.999998728744259
 21
130.99999915716108
  0
LINE
  8
_0-6_JISSEN
  6
CONTINUOUS
 62
    7
 10
81.499998728744259
 20
130.999999157161
 11
81.499998728744259
 21
131.54999915716118
  0
LINE
  8
_0-5_SAISEN
  6
CONTINUOUS
 62
    4
 10
79.899998728744549
 20
130.4999991571535
 11
79.899998728744549
 21
129.89791385732619
  0
LINE
  8
_0-6_JISSEN
  6
CONTINUOUS
 62
    7
 10
79.899998728744549
 20
129.89791385732599
 11
80.399998728744549
 21
129.60923872273119
  0
LINE
  8
_0-6_JISSEN
  6
CONTINUOUS
 62
    7
 10
81.099998728744254
 20
130.49999915715279
 11
81.499998728744259
 21
130.999999157161
  0
ARC
  8
_0-6_JISSEN
  6
CONTINUOUS
 62
    7
 10
79.449796533369863
 20
133.499999157161
 40
0.6362531454111287
 50
134.98712495037344
 51
225.01287504961732
  0
LINE
  8
_0-6_JISSEN
  6
CONTINUOUS
 62
    7
 10
78.999998728759266
 20
133.04999915714637
 11
78.999998728744259
 21
132.44999915716269
  0
LINE
  8
_0-6_JISSEN
  6
CONTINUOUS
 62
    7
 10
78.999998728752644
 20
134.5499991571528
 11
78.999998728744458
 21
133.94999915716059
  0
ARC
  8
_0-6_JISSEN
  6
CONTINUOUS
 62
    7
 10
79.449796533369863
 20
134.9999991571608
 40
0.6362531454111287
 50
134.98712495037344
 51
225.01287504961732
  0
LINE
  8
_0-6_JISSEN
  6
CONTINUOUS
 62
    7
 10
81.499998728744259
 20
132.44999915716238
 11
81.499998728744259
 21
133.04999915716118
  0
LINE
  8
_0-6_JISSEN
  6
CONTINUOUS
 62
    7
 10
81.499998728744259
 20
132.44999915716238
 11
81.499998728744259
 21
133.04999915716098
  0
LINE
  8
_0-6_JISSEN
  6
CONTINUOUS
 62
    7
 10
81.499998728744259
 20
133.94999915716039
 11
81.499998728744259
 21
134.54999915716118
  0
ARC
  8
_0-6_JISSEN
  6
CONTINUOUS
 62
    7
 10
81.949796533369863
 20
133.4999991571608
 40
0.6362531454111287
 50
134.98712495037344
 51
225.01287504961732
  0
ARC
  8
_0-6_JISSEN
  6
CONTINUOUS
 62
    7
 10
81.949796533369863
 20
134.9999991571608
 40
0.6362531454111287
 50
134.98712495037344
 51
225.01287504961732
  0
LINE
  8
_0-6_JISSEN
  6
CONTINUOUS
 62
    7
 10
82.749998728743549
 20
130.9999991571529
 11
82.749998728743549
 21
131.549999157153
  0
LINE
  8
_0-6_JISSEN
  6
CONTINUOUS
 62
    7
 10
82.749998728743549
 20
132.4499991571542
 11
82.749998728743549
 21
133.049999157153
  0
LINE
  8
_0-6_JISSEN
  6
CONTINUOUS
 62
    7
 10
82.749998728743549
 20
133.94999915715218
 11
82.749998728743549
 21
134.549999157153
  0
LINE
  8
_0-6_JISSEN
  6
CONTINUOUS
 62
    7
 10
82.749998728743549
 20
135.99999915715279
 11
81.499998728744345
 21
135.99999915715279
  0
LINE
  8
_0-6_JISSEN
  6
CONTINUOUS
 62
    7
 10
82.749998728743549
 20
135.99999915715279
 11
82.249998728743549
 21
136.49999915715279
  0
LINE
  8
_0-6_JISSEN
  6
CONTINUOUS
 62
    7
 10
78.999998728744259
 20
135.9999991571612
 11
78.599998728744367
 21
136.4999991571531
  0
LINE
  8
_0-6_JISSEN
  6
CONTINUOUS
 62
    7
 10
81.499998728744345
 20
135.999999157161
 11
81.099998728744367
 21
136.49999915715279
  0
LINE
  8
_0-6_JISSEN
  6
CONTINUOUS
 62
    7
 10
83.499998728744259
 20
138.49999915715819
 11
83.749998728744259
 21
138.24999915715819
  0
LINE
  8
_0-6_JISSEN
  6
CONTINUOUS
 62
    7
 10
82.899998728745658
 20
137.8999991571574
 11
83.499998728744259
 21
138.49999915715819
  0
LINE
  8
_0-d_WHITE_CONTINUOUS
  6
CONTINUOUS
 62
    7
 10
336.24999872874486
 20
236.49999915715321
 11
332.24999872874486
 21
236.49999915715321
  0
ARC
  8
_0-d_WHITE_CONTINUOUS
  6
CONTINUOUS
 62
    7
 10
369.49153900593444
 20
200.49999915715298
 40
49
 50
90
 51
132.71864451437889
  0
LINE
  8
_0-d_WHITE_CONTINUOUS
  6
CONTINUOUS
 62
    7
 10
363.24999872874594
 20
229.99999915715281
 11
363.24999872874616
 21
231.96410077229027
  0
LINE
  8
_0-d_WHITE_CONTINUOUS
  6
CONTINUOUS
 62
    7
 10
369.24999872874594
 20
228.49999915715281
 11
363.24999872874616
 21
231.96410077229027
  0
LINE
  8
_0-d_WHITE_CONTINUOUS
  6
CONTINUOUS
 62
    7
 10
369.24999872874548
 20
228.49999915715259
 11
363.24999872874594
 21
225.03589754201491
  0
LINE
  8
_0-d_WHITE_CONTINUOUS
  6
CONTINUOUS
 62
    7
 10
363.24999872874594
 20
225.03589754201491
 11
363.24999872874594
 21
226.99999915715298
  0
LINE
  8
_0-d_WHITE_CONTINUOUS
  6
CONTINUOUS
 62
    7
 10
374.24999872874457
 20
207.4999991571529
 11
372.81046890460817
 21
207.4999991571529
  0
ARC
  8
_0-d_WHITE_CONTINUOUS
  6
CONTINUOUS
 62
    7
 10
372.81046890460846
 20
200.4999991571529
 40
7
 50
90
 51
176.75758881564511
  0
LINE
  8
_0-d_WHITE_CONTINUOUS
  6
CONTINUOUS
 62
    7
 10
354.24999872874628
 20
229.99999915715281
 11
354.24999872874594
 21
226.99999915715281
  0
LINE
  8
_0-d_WHITE_CONTINUOUS
  6
CONTINUOUS
 62
    7
 10
340.06370722772897
 20
201.964465251219
 11
338.24999872874497
 21
203.77817375020368
  0
LINE
  8
_0-d_WHITE_CONTINUOUS
  6
CONTINUOUS
 62
    7
 10
338.24999872874497
 20
207.2218245641005
 11
338.24999872874497
 21
203.77817375020368
  0
LINE
  8
_0-d_WHITE_CONTINUOUS
  6
CONTINUOUS
 62
    7
 10
342.89213435247598
 20
201.96446525122008
 11
339.35660044654247
 21
205.4999991571531
  0
LINE
  8
_0-d_WHITE_CONTINUOUS
  6
CONTINUOUS
 62
    7
 10
338.24999872874497
 20
207.2218245641005
 11
340.06370722773033
 21
209.03553306308578
  0
LINE
  8
_0-d_WHITE_CONTINUOUS
  6
CONTINUOUS
 62
    7
 10
339.35660044654247
 20
205.4999991571531
 11
342.89213435247564
 21
209.03553306308589
  0
LINE
  8
_0-d_WHITE_CONTINUOUS
  6
CONTINUOUS
 62
    7
 10
363.24999872874594
 20
229.99999915715281
 11
354.24999872874628
 21
229.99999915715281
  0
LINE
  8
_0-d_WHITE_CONTINUOUS
  6
CONTINUOUS
 62
    7
 10
363.24999872874594
 20
226.99999915715281
 11
354.24999872874594
 21
226.99999915715281
  0
LINE
  8
_0-d_WHITE_CONTINUOUS
  6
CONTINUOUS
 62
    7
 10
330.47182413569345
 20
214.99999915715279
 11
332.28553263467745
 21
216.81370765613738
  0
LINE
  8
_0-d_WHITE_CONTINUOUS
  6
CONTINUOUS
 62
    7
 10
327.02817332179563
 20
214.9999991571529
 11
325.21446482281164
 21
216.81370765613738
  0
LINE
  8
_0-d_WHITE_CONTINUOUS
  6
CONTINUOUS
 62
    7
 10
327.02817332179563
 20
214.9999991571529
 11
330.47182413569345
 21
214.99999915715279
  0
LINE
  8
_0-d_WHITE_CONTINUOUS
  6
CONTINUOUS
 62
    7
 10
328.74999872874344
 20
204.4393389853706
 11
326.45190168988756
 21
206.73743602422618
  0
LINE
  8
_0-d_WHITE_CONTINUOUS
  6
CONTINUOUS
 62
    7
 10
329.28032881463326
 20
203.90900889948159
 11
331.04809576759925
 21
205.67677585244809
  0
LINE
  8
_0-d_WHITE_CONTINUOUS
  6
CONTINUOUS
 62
    7
 10
325.92157160399768
 20
206.20710593833638
 11
332.99263941586503
 21
213.2781737502049
  0
LINE
  8
_0-d_WHITE_CONTINUOUS
  6
CONTINUOUS
 62
    7
 10
326.98223177577756
 20
206.2071059383359
 11
333.52296950175486
 21
212.74784366431498
  0
LINE
  8
_0-d_WHITE_CONTINUOUS
  6
CONTINUOUS
 62
    7
 10
319.24999872874508
 20
207.22182456410059
 11
319.24999872874508
 21
203.77817375020499
  0
LINE
  8
_0-d_WHITE_CONTINUOUS
  6
CONTINUOUS
 62
    7
 10
314.60786310501408
 20
201.96446525122008
 11
318.14339701094684
 21
205.4999991571527
  0
LINE
  8
_0-d_WHITE_CONTINUOUS
  6
CONTINUOUS
 62
    7
 10
317.43629022976017
 20
201.96446525122008
 11
319.24999872874508
 21
203.77817375020499
  0
LINE
  8
_0-d_WHITE_CONTINUOUS
  6
CONTINUOUS
 62
    7
 10
318.14339701094593
 20
205.4999991571533
 11
314.60786310501408
 21
209.0355330630855
  0
LINE
  8
_0-d_WHITE_CONTINUOUS
  6
CONTINUOUS
 62
    7
 10
319.24999872874508
 20
207.22182456410059
 11
317.43629022976017
 21
209.0355330630855
  0
LINE
  8
_0-d_WHITE_CONTINUOUS
  6
CONTINUOUS
 62
    7
 10
317.43629022976017
 20
209.0355330630855
 11
325.21446482281164
 21
216.81370765613738
  0
CIRCLE
  8
_0-d_WHITE_CONTINUOUS
  6
CONTINUOUS
 62
    7
 10
322.69300885009113
 20
211.46382455867069
 40
1.25
  0
ARC
  8
_0-d_WHITE_CONTINUOUS
  6
CONTINUOUS
 62
    7
 10
323.64301221972556
 20
208.35894614605769
 40
1.25
 50
11.184191565103189
 51
191.18419156509989
  0
ARC
  8
_0-d_WHITE_CONTINUOUS
  6
CONTINUOUS
 62
    7
 10
322.69300885009113
 20
211.46382455867069
 40
2
 50
22.841012013486331
 51
202.84101201348591
  0
ARC
  8
_0-d_WHITE_CONTINUOUS
  6
CONTINUOUS
 62
    7
 10
322.69300885009113
 20
211.46382455867069
 40
2
 50
22.841012013486331
 51
202.84101201348591
  0
LINE
  8
_0-d_WHITE_CONTINUOUS
  6
CONTINUOUS
 62
    7
 10
314.60786310501408
 20
209.0355330630855
 11
325.21446482281215
 21
219.64213478088368
  0
LINE
  8
_0-d_WHITE_CONTINUOUS
  6
CONTINUOUS
 62
    7
 10
328.74999872874457
 20
216.10660087494998
 11
325.21446482281215
 21
219.64213478088368
  0
LINE
  8
_0-d_WHITE_CONTINUOUS
  6
CONTINUOUS
 62
    7
 10
328.74999872874457
 20
216.10660087494998
 11
332.28553263467768
 21
219.64213478088348
  0
LINE
  8
_0-d_WHITE_CONTINUOUS
  6
CONTINUOUS
 62
    7
 10
297.24999872874486
 20
229.99999915715287
 11
297.24999872874486
 21
231.96410077229038
  0
LINE
  8
_0-d_WHITE_CONTINUOUS
  6
CONTINUOUS
 62
    7
 10
297.24999872874486
 20
225.03589754201508
 11
297.24999872874486
 21
226.99999915715298
  0
LINE
  8
_0-d_WHITE_CONTINUOUS
  6
CONTINUOUS
 62
    7
 10
303.24999872874486
 20
228.49999915715298
 11
297.24999872874486
 21
231.96410077229038
  0
LINE
  8
_0-d_WHITE_CONTINUOUS
  6
CONTINUOUS
 62
    7
 10
297.24999872874486
 20
225.03589754201479
 11
303.24999872874434
 21
228.4999991571527
  0
LINE
  8
_0-d_WHITE_CONTINUOUS
  6
CONTINUOUS
 62
    7
 10
332.28553263467813
 20
194.18629065816759
 11
330.47182413569465
 21
195.99999915715159
  0
LINE
  8
_0-d_WHITE_CONTINUOUS
  6
CONTINUOUS
 62
    7
 10
325.21446482281164
 20
194.1862906581687
 11
327.02817332179535
 21
195.9999991571529
  0
LINE
  8
_0-d_WHITE_CONTINUOUS
  6
CONTINUOUS
 62
    7
 10
327.02817332179535
 20
195.9999991571529
 11
330.47182413569465
 21
195.99999915715159
  0
LINE
  8
_0-d_WHITE_CONTINUOUS
  6
CONTINUOUS
 62
    7
 10
325.21446482281237
 20
191.35786353342189
 11
328.74999872874508
 21
194.89339743935358
  0
LINE
  8
_0-d_WHITE_CONTINUOUS
  6
CONTINUOUS
 62
    7
 10
332.28553263467808
 20
191.35786353342189
 11
328.74999872874508
 21
194.89339743935358
  0
ARC
  8
_0-d_WHITE_CONTINUOUS
  6
CONTINUOUS
 62
    7
 10
322.83314161897357
 20
199.39604098675298
 40
1.25
 50
158.48958118576891
 51
338.4895811857686
  0
ARC
  8
_0-d_WHITE_CONTINUOUS
  6
CONTINUOUS
 62
    7
 10
322.83314161897357
 20
199.39604098675298
 40
2
 50
158.48958118576891
 51
338.48958118576593
  0
TEXT
  8
_0-e_STRING_WHITE
 62
    7
 10
311.90166028107444
 20
178.06409713020759
 40
9.5
 41
0.6283566058002146
 50
0
  1
ＰＡＴ
  0
LINE
  8
_0-d_WHITE_CONTINUOUS
  6
CONTINUOUS
 62
    7
 10
325.21446482281237
 20
191.35786353342189
 11
314.60786310501408
 21
201.96446525122008
  0
LINE
  8
_0-d_WHITE_CONTINUOUS
  6
CONTINUOUS
 62
    7
 10
325.21446482281164
 20
194.1862906581687
 11
317.43629022976017
 21
201.96446525122008
  0
LINE
  8
_0-d_WHITE_CONTINUOUS
  6
CONTINUOUS
 62
    7
 10
334.48256390635106
 20
198.7067738077661
 11
329.28032881463326
 21
203.90900889948159
  0
LINE
  8
_0-d_WHITE_CONTINUOUS
  6
CONTINUOUS
 62
    7
 10
333.69974619705033
 20
198.42893134528629
 11
325.92157160399768
 21
206.20710593833638
  0
ARC
  8
_0-d_WHITE_CONTINUOUS
  6
CONTINUOUS
 62
    7
 10
394.65241462297064
 20
204.3572158336068
 40
104
 50
181.4884079153174
 51
200.160780882681
  0
ARC
  8
_0-d_WHITE_CONTINUOUS
  6
CONTINUOUS
 62
    7
 10
307.95954232704213
 20
205.25803210485478
 40
13.98708528048923
 50
338.48958118576633
 51
22.841012013486321
  0
ARC
  8
_0-d_WHITE_CONTINUOUS
  6
CONTINUOUS
 62
    7
 10
307.95954232704213
 20
205.25803210485478
 40
14.73708528048923
 50
338.48958118576633
 51
11.184191565103175
  0
ARC
  8
_0-d_WHITE_CONTINUOUS
  6
CONTINUOUS
 62
    7
 10
307.95954232704213
 20
205.25803210485478
 40
17.237085280489229
 50
338.4895811857686
 51
11.184191565103136
  0
ARC
  8
_0-d_WHITE_CONTINUOUS
  6
CONTINUOUS
 62
    7
 10
307.95954232704213
 20
205.25803210485478
 40
17.987085280489229
 50
338.48958118576633
 51
22.841012013486321
  0
LINE
  8
_0-d_WHITE_CONTINUOUS
  6
CONTINUOUS
 62
    7
 10
332.28553263467808
 20
191.35786353342189
 11
342.89213435247598
 21
201.96446525122008
  0
LINE
  8
_0-d_WHITE_CONTINUOUS
  6
CONTINUOUS
 62
    7
 10
342.89213435247564
 20
209.03553306308589
 11
332.28553263467768
 21
219.64213478088348
  0
LINE
  8
_0-d_WHITE_CONTINUOUS
  6
CONTINUOUS
 62
    7
 10
340.06370722773033
 20
209.03553306308578
 11
332.28553263467745
 21
216.81370765613738
  0
LINE
  8
_0-d_WHITE_CONTINUOUS
  6
CONTINUOUS
 62
    7
 10
332.28553263467813
 20
194.18629065816759
 11
340.06370722772897
 21
201.964465251219
  0
LINE
  8
_0-d_WHITE_CONTINUOUS
  6
CONTINUOUS
 62
    7
 10
328.74999872874366
 20
204.4393389853704
 11
335.29073645472124
 21
210.98007671134869
  0
LINE
  8
_0-d_WHITE_CONTINUOUS
  6
CONTINUOUS
 62
    7
 10
336.25033085930897
 20
200.4745407607397
 11
331.04809576759925
 21
205.67677585244809
  0
LINE
  8
_0-d_WHITE_CONTINUOUS
  6
CONTINUOUS
 62
    7
 10
335.82106654061107
 20
210.4497466254594
 11
331.57842585349033
 21
206.20710593833718
  0
LINE
  8
_0-d_WHITE_CONTINUOUS
  6
CONTINUOUS
 62
    7
 10
336.52817332179654
 20
201.25735847003338
 11
331.57842585349033
 21
206.20710593833718
  0
ARC
  8
_0-d_WHITE_CONTINUOUS
  6
CONTINUOUS
 62
    7
 10
334.40685297823796
 20
211.86396018783199
 40
1.2499999999995091
 50
314.99999999999989
 51
135.00000000000202
  0
ARC
  8
_0-d_WHITE_CONTINUOUS
  6
CONTINUOUS
 62
    7
 10
335.11395975942344
 20
199.84314490765959
 40
1.300000000000155
 50
240.94236860272969
 51
29.057631397739936
  0
ARC
  8
_0-d_WHITE_CONTINUOUS
  6
CONTINUOUS
 62
    7
 10
334.40685297823796
 20
211.86396018783199
 40
1.9999999999995131
 50
315.00000000000921
 51
135.00000000000199
  0
ARC
  8
_0-d_WHITE_CONTINUOUS
  6
CONTINUOUS
 62
    7
 10
335.11395975942344
 20
199.84314490765959
 40
2.0000000000001541
 50
225.00000000000881
 51
45.00000000000977
  0
LINE
  8
_0-d_WHITE_CONTINUOUS
  6
CONTINUOUS
 62
    7
 10
283.24999872874508
 20
251.49999915715389
 11
279.69188634602136
 21
255.05811153987619
  0
LINE
  8
_0-d_WHITE_CONTINUOUS
  6
CONTINUOUS
 62
    7
 10
266.80811111146818
 20
255.0581115398758
 11
279.69188634602085
 21
255.0581115398758
  0
LINE
  8
_0-d_WHITE_CONTINUOUS
  6
CONTINUOUS
 62
    7
 10
266.80811111146755
 20
241.77905534851467
 11
279.69188634602028
 21
241.77905534851467
  0
ARC
  8
_0-d_WHITE_CONTINUOUS
  6
CONTINUOUS
 62
    7
 10
275.27617848954316
 20
248.41858344419606
 40
7.9738202392011122
 50
303.62642913596119
 51
56.373570864038747
  0
LINE
  8
_0-d_WHITE_CONTINUOUS
  6
CONTINUOUS
 62
    7
 10
263.24999872874508
 20
251.49999915715469
 11
266.80811111146835
 21
255.0581115398758
  0
ARC
  8
_0-d_WHITE_CONTINUOUS
  6
CONTINUOUS
 62
    7
 10
271.22381896794548
 20
248.41858344419538
 40
7.9738202392010358
 50
123.6264291359695
 51
236.37357086403037
  0
LINE
  8
_0-d_WHITE_CONTINUOUS
  6
CONTINUOUS
 62
    7
 10
288.24999872874486
 20
229.99999915715287
 11
288.24999872874463
 21
226.99999915715298
  0
LINE
  8
_0-d_WHITE_CONTINUOUS
  6
CONTINUOUS
 62
    7
 10
284.68952855288154
 20
207.4999991571529
 11
283.24999872874486
 21
207.4999991571529
  0
LINE
  8
_0-d_WHITE_CONTINUOUS
  6
CONTINUOUS
 62
    7
 10
283.24999872874486
 20
205.49999915715429
 11
279.69188634602136
 21
201.94188677443009
  0
ARC
  8
_0-d_WHITE_CONTINUOUS
  6
CONTINUOUS
 62
    7
 10
275.27617848954338
 20
208.58141487011108
 40
7.9738202392008164
 50
303.62642913596272
 51
56.373570864038733
  0
LINE
  8
_0-d_WHITE_CONTINUOUS
  6
CONTINUOUS
 62
    7
 10
266.80811111146693
 20
201.94188677443009
 11
279.69188634602136
 21
201.94188677443009
  0
LINE
  8
_0-d_WHITE_CONTINUOUS
  6
CONTINUOUS
 62
    7
 10
266.80811111146755
 20
215.22094296579198
 11
279.69188634602028
 21
215.22094296579198
  0
LINE
  8
_0-d_WHITE_CONTINUOUS
  6
CONTINUOUS
 62
    7
 10
283.24999872874355
 20
228.49999915715298
 11
283.24999872874486
 21
205.49999915715429
  0
LINE
  8
_0-d_WHITE_CONTINUOUS
  6
CONTINUOUS
 62
    7
 10
266.80811111146625
 20
201.94188677443009
 11
263.24999872874486
 21
205.49999915715227
  0
ARC
  8
_0-d_WHITE_CONTINUOUS
  6
CONTINUOUS
 62
    7
 10
271.18529038709823
 20
208.58141487011019
 40
7.9525487577479552
 50
123.3952911872392
 51
236.60470881276143
  0
LINE
  8
_0-d_WHITE_CONTINUOUS
  6
CONTINUOUS
 62
    7
 10
263.24999872874508
 20
251.49999915715469
 11
263.24999872874486
 21
205.49999915715227
  0
LINE
  8
_0-d_WHITE_CONTINUOUS
  6
CONTINUOUS
 62
    7
 10
283.24999872874508
 20
251.49999915715389
 11
283.24999872874633
 21
228.49999915715298
  0
ARC
  8
_0-d_WHITE_CONTINUOUS
  6
CONTINUOUS
 62
    7
 10
256.69188634602983
 20
228.49999915715338
 40
26.558112382714398
 50
329.99999999998772
 51
30.000000000011873
  0
ARC
  8
_0-d_WHITE_CONTINUOUS
  6
CONTINUOUS
 62
    7
 10
289.80811111146744
 20
228.49999915715338
 40
26.558112382722801
 50
149.9999999999994
 51
210.0000000000004
  0
LINE
  8
_0-d_WHITE_CONTINUOUS
  6
CONTINUOUS
 62
    7
 10
374.24999872874486
 20
249.49999915715298
 11
283.24999872874508
 21
249.49999915715298
  0
LINE
  8
_0-d_WHITE_CONTINUOUS
  6
CONTINUOUS
 62
    7
 10
297.24999872874486
 20
229.99999915715287
 11
288.24999872874486
 21
229.99999915715287
  0
LINE
  8
_0-d_WHITE_CONTINUOUS
  6
CONTINUOUS
 62
    7
 10
297.24999872874486
 20
226.99999915715298
 11
288.24999872874463
 21
226.99999915715298
  0
ARC
  8
_0-d_WHITE_CONTINUOUS
  6
CONTINUOUS
 62
    7
 10
288.53501273995636
 20
169.49999915715298
 40
80
 50
56.877059792254947
 51
90
  0
ARC
  8
_0-d_WHITE_CONTINUOUS
  6
CONTINUOUS
 62
    7
 10
284.68952855288154
 20
201.4999991571552
 40
6
 50
1.4884079153174883
 51
90.000000000000014
  0
LINE
  8
_0-d_WHITE_CONTINUOUS
  6
CONTINUOUS
 62
    7
 10
327.24999872874525
 20
143.49999915715298
 11
328.24999872874508
 21
144.49999915715298
  0
LINE
  8
_0-d_WHITE_CONTINUOUS
  6
CONTINUOUS
 62
    7
 10
328.24999872874463
 20
148.66573109366038
 11
328.24999872874486
 21
144.49999915715298
  0
ARC
  8
_0-d_WHITE_CONTINUOUS
  6
CONTINUOUS
 62
    7
 10
338.24999872874486
 20
148.66573109366038
 40
10
 50
111.21461837567379
 51
180
  0
LINE
  8
_0-d_WHITE_CONTINUOUS
  6
CONTINUOUS
 62
    7
 10
298.24999872874486
 20
144.4999991571529
 11
299.24999872874486
 21
143.4999991571529
  0
LINE
  8
_0-d_WHITE_CONTINUOUS
  6
CONTINUOUS
 62
    7
 10
298.24999872874486
 20
161.6199069105146
 11
298.24999872874486
 21
144.4999991571529
  0
LINE
  8
_0-d_WHITE_CONTINUOUS
  6
CONTINUOUS
 62
    7
 10
327.24999872874508
 20
143.49999915715298
 11
299.24999872874486
 21
143.4999991571529
  0
LINE
  8
_0-d_WHITE_CONTINUOUS
  6
CONTINUOUS
 62
    7
 10
298.24999872874486
 20
144.4999991571529
 11
328.24999872874508
 21
144.4999991571529
  0
ARC
  8
_0-d_WHITE_CONTINUOUS
  6
CONTINUOUS
 62
    7
 10
316.90011534264005
 20
203.66738997227748
 40
49
 50
291.21461837567381
 51
356.75758881564514
  0
ARC
  8
_0-d_WHITE_CONTINUOUS
  6
CONTINUOUS
 62
    7
 10
278.24999872874497
 20
161.6199069105146
 40
20
 50
0.0000000000195413
 51
20.160780882681099
  0
ARC
  8
_0-d_WHITE_CONTINUOUS
  6
CONTINUOUS
 62
    7
 10
367.69188634602165
 20
228.49999915715338
 40
26.558112382722801
 50
329.99999999999937
 51
30.000000000000512
  0
ARC
  8
_0-d_WHITE_CONTINUOUS
  6
CONTINUOUS
 62
    7
 10
400.80811111145965
 20
228.49999915715338
 40
26.558112382714398
 50
149.99999999998801
 51
210.00000000001216
  0
LINE
  8
_0-d_WHITE_CONTINUOUS
  6
CONTINUOUS
 62
    7
 10
374.24999872874457
 20
251.49999915715389
 11
374.24999872874326
 21
228.49999915715298
  0
LINE
  8
_0-d_WHITE_CONTINUOUS
  6
CONTINUOUS
 62
    7
 10
394.24999872874423
 20
251.49999915715469
 11
394.24999872874457
 21
205.49999915715227
  0
ARC
  8
_0-d_WHITE_CONTINUOUS
  6
CONTINUOUS
 62
    7
 10
386.31470707039114
 20
208.58141487011019
 40
7.9525487577479552
 50
303.39529118723851
 51
56.604708812760741
  0
LINE
  8
_0-d_WHITE_CONTINUOUS
  6
CONTINUOUS
 62
    7
 10
390.69188634602295
 20
201.94188677443009
 11
394.24999872874457
 21
205.49999915715227
  0
LINE
  8
_0-d_WHITE_CONTINUOUS
  6
CONTINUOUS
 62
    7
 10
374.24999872874594
 20
228.49999915715298
 11
374.24999872874457
 21
205.49999915715429
  0
LINE
  8
_0-d_WHITE_CONTINUOUS
  6
CONTINUOUS
 62
    7
 10
390.69188634602205
 20
215.22094296579198
 11
377.80811111146926
 21
215.22094296579198
  0
LINE
  8
_0-d_WHITE_CONTINUOUS
  6
CONTINUOUS
 62
    7
 10
390.69188634602233
 20
201.94188677443009
 11
377.80811111146795
 21
201.94188677443009
  0
ARC
  8
_0-d_WHITE_CONTINUOUS
  6
CONTINUOUS
 62
    7
 10
382.22381896794593
 20
208.58141487011108
 40
7.9738202392008164
 50
123.6264291359612
 51
236.37357086403739
  0
LINE
  8
_0-d_WHITE_CONTINUOUS
  6
CONTINUOUS
 62
    7
 10
374.24999872874457
 20
205.49999915715429
 11
377.80811111146795
 21
201.94188677443009
  0
ARC
  8
_0-d_WHITE_CONTINUOUS
  6
CONTINUOUS
 62
    7
 10
386.27617848954395
 20
248.41858344419538
 40
7.9738202392010358
 50
303.62642913596954
 51
56.373570864030427
  0
LINE
  8
_0-d_WHITE_CONTINUOUS
  6
CONTINUOUS
 62
    7
 10
394.24999872874423
 20
251.49999915715469
 11
390.69188634602114
 21
255.0581115398758
  0
ARC
  8
_0-d_WHITE_CONTINUOUS
  6
CONTINUOUS
 62
    7
 10
382.22381896794644
 20
248.41858344419606
 40
7.9738202392011122
 50
123.6264291359612
 51
236.37357086403867
  0
LINE
  8
_0-d_WHITE_CONTINUOUS
  6
CONTINUOUS
 62
    7
 10
390.69188634602205
 20
241.77905534851467
 11
377.80811111146926
 21
241.77905534851467
  0
LINE
  8
_0-d_WHITE_CONTINUOUS
  6
CONTINUOUS
 62
    7
 10
390.69188634602136
 20
255.0581115398758
 11
377.80811111146858
 21
255.0581115398758
  0
LINE
  8
_0-d_WHITE_CONTINUOUS
  6
CONTINUOUS
 62
    7
 10
374.24999872874457
 20
251.49999915715389
 11
377.80811111146795
 21
255.05811153987619
  0
LINE
  8
_0-1_ITTEN
  6
CENTER
 62
    1
 10
368.25159407857058
 20
228.49999915715338
 11
399.25159407857035
 21
228.49999915715338
  0
LINE
  8
_0-1_ITTEN
  6
CENTER
 62
    1
 10
289.24840337891914
 20
228.49999915715338
 11
258.24840337891925
 21
228.49999915715338
  0
LINE
  8
_0-d_WHITE_CONTINUOUS
  6
CONTINUOUS
 62
    7
 10
88.249998728744856
 20
276.49999915715284
 11
84.249998728744657
 21
276.49999915715284
  0
ARC
  8
_0-d_WHITE_CONTINUOUS
  6
CONTINUOUS
 62
    7
 10
121.49153900593436
 20
240.4999991571527
 40
49
 50
90
 51
132.71864451437889
  0
LINE
  8
_0-d_WHITE_CONTINUOUS
  6
CONTINUOUS
 62
    7
 10
115.24999872874585
 20
269.9999991571525
 11
115.24999872874605
 21
271.96410077228984
  0
LINE
  8
_0-d_WHITE_CONTINUOUS
  6
CONTINUOUS
 62
    7
 10
121.24999872874585
 20
268.4999991571525
 11
115.24999872874605
 21
271.96410077228984
  0
LINE
  8
_0-d_WHITE_CONTINUOUS
  6
CONTINUOUS
 62
    7
 10
121.24999872874545
 20
268.49999915715227
 11
115.24999872874596
 21
265.03589754201471
  0
LINE
  8
_0-d_WHITE_CONTINUOUS
  6
CONTINUOUS
 62
    7
 10
115.24999872874596
 20
265.03589754201471
 11
115.24999872874585
 21
266.99999915715262
  0
LINE
  8
_0-d_WHITE_CONTINUOUS
  6
CONTINUOUS
 62
    7
 10
126.24999872874454
 20
247.49999915715259
 11
124.81046890460814
 21
247.49999915715259
  0
ARC
  8
_0-d_WHITE_CONTINUOUS
  6
CONTINUOUS
 62
    7
 10
124.81046890460826
 20
240.49999915715259
 40
7
 50
90
 51
176.75758881564511
  0
LINE
  8
_0-d_WHITE_CONTINUOUS
  6
CONTINUOUS
 62
    7
 10
106.24999872874596
 20
269.9999991571525
 11
106.24999872874577
 21
266.9999991571525
  0
LINE
  8
_0-d_WHITE_CONTINUOUS
  6
CONTINUOUS
 62
    7
 10
92.063707227728656
 20
241.96446525121868
 11
90.24999872874497
 21
243.77817375020348
  0
LINE
  8
_0-d_WHITE_CONTINUOUS
  6
CONTINUOUS
 62
    7
 10
90.24999872874497
 20
247.22182456410016
 11
90.24999872874497
 21
243.77817375020348
  0
LINE
  8
_0-d_WHITE_CONTINUOUS
  6
CONTINUOUS
 62
    7
 10
94.892134352476148
 20
241.96446525121971
 11
91.356600446542558
 21
245.4999991571527
  0
LINE
  8
_0-d_WHITE_CONTINUOUS
  6
CONTINUOUS
 62
    7
 10
90.24999872874497
 20
247.22182456410016
 11
92.063707227730163
 21
249.03553306308547
  0
LINE
  8
_0-d_WHITE_CONTINUOUS
  6
CONTINUOUS
 62
    7
 10
91.356600446542558
 20
245.4999991571527
 11
94.892134352475665
 21
249.03553306308558
  0
LINE
  8
_0-d_WHITE_CONTINUOUS
  6
CONTINUOUS
 62
    7
 10
115.24999872874585
 20
269.9999991571525
 11
106.24999872874596
 21
269.9999991571525
  0
LINE
  8
_0-d_WHITE_CONTINUOUS
  6
CONTINUOUS
 62
    7
 10
115.24999872874585
 20
266.9999991571525
 11
106.24999872874577
 21
266.9999991571525
  0
LINE
  8
_0-d_WHITE_CONTINUOUS
  6
CONTINUOUS
 62
    7
 10
82.471824135693367
 20
254.99999915715247
 11
84.285532634677253
 21
256.81370765613713
  0
LINE
  8
_0-d_WHITE_CONTINUOUS
  6
CONTINUOUS
 62
    7
 10
79.028173321795663
 20
254.99999915715259
 11
77.21446482281155
 21
256.81370765613713
  0
LINE
  8
_0-d_WHITE_CONTINUOUS
  6
CONTINUOUS
 62
    7
 10
79.028173321795663
 20
254.99999915715259
 11
82.471824135693367
 21
254.99999915715247
  0
LINE
  8
_0-d_WHITE_CONTINUOUS
  6
CONTINUOUS
 62
    7
 10
80.749998728743265
 20
244.4393389853702
 11
78.451901689887364
 21
246.7374360242259
  0
LINE
  8
_0-d_WHITE_CONTINUOUS
  6
CONTINUOUS
 62
    7
 10
81.280328814632952
 20
243.90900889948128
 11
83.048095767599051
 21
245.67677585244778
  0
LINE
  8
_0-d_WHITE_CONTINUOUS
  6
CONTINUOUS
 62
    7
 10
77.921571603997563
 20
246.20710593833607
 11
84.992639415864858
 21
253.27817375020462
  0
LINE
  8
_0-d_WHITE_CONTINUOUS
  6
CONTINUOUS
 62
    7
 10
78.982231775777365
 20
246.2071059383355
 11
85.522969501754545
 21
252.74784366431467
  0
LINE
  8
_0-d_WHITE_CONTINUOUS
  6
CONTINUOUS
 62
    7
 10
71.249998728744856
 20
247.22182456410039
 11
71.249998728744856
 21
243.77817375020467
  0
LINE
  8
_0-d_WHITE_CONTINUOUS
  6
CONTINUOUS
 62
    7
 10
66.607863105013962
 20
241.96446525121971
 11
70.143397010946643
 21
245.49999915715236
  0
LINE
  8
_0-d_WHITE_CONTINUOUS
  6
CONTINUOUS
 62
    7
 10
69.436290229760061
 20
241.96446525121976
 11
71.249998728744856
 21
243.77817375020467
  0
LINE
  8
_0-d_WHITE_CONTINUOUS
  6
CONTINUOUS
 62
    7
 10
70.143397010945847
 20
245.49999915715298
 11
66.607863105013848
 21
249.03553306308518
  0
LINE
  8
_0-d_WHITE_CONTINUOUS
  6
CONTINUOUS
 62
    7
 10
71.249998728744856
 20
247.22182456410039
 11
69.436290229759948
 21
249.03553306308518
  0
LINE
  8
_0-d_WHITE_CONTINUOUS
  6
CONTINUOUS
 62
    7
 10
69.436290229759948
 20
249.03553306308518
 11
77.21446482281155
 21
256.81370765613713
  0
CIRCLE
  8
_0-d_WHITE_CONTINUOUS
  6
CONTINUOUS
 62
    7
 10
74.693008850090848
 20
251.46382455867027
 40
1.25
  0
ARC
  8
_0-d_WHITE_CONTINUOUS
  6
CONTINUOUS
 62
    7
 10
75.643012219725648
 20
248.35894614605738
 40
1.25
 50
11.184191565103189
 51
191.18419156509989
  0
ARC
  8
_0-d_WHITE_CONTINUOUS
  6
CONTINUOUS
 62
    7
 10
74.693008850090848
 20
251.46382455867027
 40
2
 50
22.841012013486331
 51
202.84101201348591
  0
ARC
  8
_0-d_WHITE_CONTINUOUS
  6
CONTINUOUS
 62
    7
 10
74.693008850090848
 20
251.46382455867027
 40
2
 50
22.841012013486331
 51
202.84101201348591
  0
LINE
  8
_0-d_WHITE_CONTINUOUS
  6
CONTINUOUS
 62
    7
 10
66.607863105013848
 20
249.03553306308518
 11
77.214464822812062
 21
259.64213478088334
  0
LINE
  8
_0-d_WHITE_CONTINUOUS
  6
CONTINUOUS
 62
    7
 10
80.749998728744544
 20
256.10660087494955
 11
77.214464822812062
 21
259.64213478088334
  0
LINE
  8
_0-d_WHITE_CONTINUOUS
  6
CONTINUOUS
 62
    7
 10
80.749998728744544
 20
256.10660087494955
 11
84.285532634677452
 21
259.64213478088323
  0
LINE
  8
_0-d_WHITE_CONTINUOUS
  6
CONTINUOUS
 62
    7
 10
49.249998728744572
 20
269.99999915715262
 11
49.249998728744856
 21
271.96410077229018
  0
LINE
  8
_0-d_WHITE_CONTINUOUS
  6
CONTINUOUS
 62
    7
 10
49.249998728744572
 20
265.03589754201471
 11
49.249998728744572
 21
266.99999915715273
  0
LINE
  8
_0-d_WHITE_CONTINUOUS
  6
CONTINUOUS
 62
    7
 10
55.249998728744572
 20
268.49999915715262
 11
49.249998728744856
 21
271.96410077229018
  0
LINE
  8
_0-d_WHITE_CONTINUOUS
  6
CONTINUOUS
 62
    7
 10
49.249998728744657
 20
265.03589754201448
 11
55.249998728744259
 21
268.49999915715239
  0
LINE
  8
_0-d_WHITE_CONTINUOUS
  6
CONTINUOUS
 62
    7
 10
84.285532634678162
 20
234.18629065816739
 11
82.471824135694561
 21
235.99999915715128
  0
LINE
  8
_0-d_WHITE_CONTINUOUS
  6
CONTINUOUS
 62
    7
 10
77.214464822811465
 20
234.18629065816847
 11
79.028173321795464
 21
235.99999915715259
  0
LINE
  8
_0-d_WHITE_CONTINUOUS
  6
CONTINUOUS
 62
    7
 10
79.028173321795464
 20
235.99999915715259
 11
82.471824135694561
 21
235.99999915715128
  0
LINE
  8
_0-d_WHITE_CONTINUOUS
  6
CONTINUOUS
 62
    7
 10
77.214464822812261
 20
231.35786353342147
 11
80.749998728744856
 21
234.89339743935327
  0
LINE
  8
_0-d_WHITE_CONTINUOUS
  6
CONTINUOUS
 62
    7
 10
84.28553263467785
 20
231.35786353342147
 11
80.749998728744856
 21
234.89339743935327
  0
ARC
  8
_0-d_WHITE_CONTINUOUS
  6
CONTINUOUS
 62
    7
 10
74.833141618973258
 20
239.39604098675269
 40
1.25
 50
158.48958118576891
 51
338.4895811857686
  0
ARC
  8
_0-d_WHITE_CONTINUOUS
  6
CONTINUOUS
 62
    7
 10
74.833141618973258
 20
239.39604098675269
 40
2
 50
158.48958118576891
 51
338.48958118576593
  0
TEXT
  8
_0-e_STRING_WHITE
 62
    7
 10
63.901660281074356
 20
218.0640971302073
 40
9.5
 41
0.6283566058002175
 50
0
  1
ＰＡＴ
  0
LINE
  8
_0-d_WHITE_CONTINUOUS
  6
CONTINUOUS
 62
    7
 10
77.214464822812261
 20
231.35786353342147
 11
66.607863105013962
 21
241.96446525121971
  0
LINE
  8
_0-d_WHITE_CONTINUOUS
  6
CONTINUOUS
 62
    7
 10
77.214464822811465
 20
234.18629065816847
 11
69.436290229760061
 21
241.96446525121976
  0
LINE
  8
_0-d_WHITE_CONTINUOUS
  6
CONTINUOUS
 62
    7
 10
86.482563906350947
 20
238.70677380776581
 11
81.280328814632952
 21
243.90900889948128
  0
LINE
  8
_0-d_WHITE_CONTINUOUS
  6
CONTINUOUS
 62
    7
 10
85.699746197050359
 20
238.42893134528586
 11
77.921571603997563
 21
246.20710593833607
  0
ARC
  8
_0-d_WHITE_CONTINUOUS
  6
CONTINUOUS
 62
    7
 10
146.65241462297047
 20
244.35721583360649
 40
104
 50
181.4884079153174
 51
200.160780882681
  0
ARC
  8
_0-d_WHITE_CONTINUOUS
  6
CONTINUOUS
 62
    7
 10
59.959542327042158
 20
245.25803210485449
 40
13.98708528048923
 50
338.48958118576633
 51
22.841012013486321
  0
ARC
  8
_0-d_WHITE_CONTINUOUS
  6
CONTINUOUS
 62
    7
 10
59.959542327042158
 20
245.25803210485449
 40
14.73708528048923
 50
338.48958118576633
 51
11.184191565103175
  0
ARC
  8
_0-d_WHITE_CONTINUOUS
  6
CONTINUOUS
 62
    7
 10
59.959542327042158
 20
245.25803210485449
 40
17.237085280489229
 50
338.4895811857686
 51
11.184191565103136
  0
ARC
  8
_0-d_WHITE_CONTINUOUS
  6
CONTINUOUS
 62
    7
 10
59.959542327042158
 20
245.25803210485449
 40
17.987085280489229
 50
338.48958118576633
 51
22.841012013486321
  0
LINE
  8
_0-d_WHITE_CONTINUOUS
  6
CONTINUOUS
 62
    7
 10
84.28553263467785
 20
231.35786353342147
 11
94.892134352476148
 21
241.96446525121971
  0
LINE
  8
_0-d_WHITE_CONTINUOUS
  6
CONTINUOUS
 62
    7
 10
94.892134352475665
 20
249.03553306308558
 11
84.285532634677452
 21
259.64213478088323
  0
LINE
  8
_0-d_WHITE_CONTINUOUS
  6
CONTINUOUS
 62
    7
 10
92.063707227730163
 20
249.03553306308547
 11
84.285532634677253
 21
256.81370765613713
  0
LINE
  8
_0-d_WHITE_CONTINUOUS
  6
CONTINUOUS
 62
    7
 10
84.285532634678162
 20
234.18629065816739
 11
92.063707227728656
 21
241.96446525121868
  0
LINE
  8
_0-d_WHITE_CONTINUOUS
  6
CONTINUOUS
 62
    7
 10
80.749998728743464
 20
244.43933898537009
 11
87.290736454721042
 21
250.9800767113484
  0
LINE
  8
_0-d_WHITE_CONTINUOUS
  6
CONTINUOUS
 62
    7
 10
88.250330859308747
 20
240.47454076073942
 11
83.048095767599051
 21
245.67677585244778
  0
LINE
  8
_0-d_WHITE_CONTINUOUS
  6
CONTINUOUS
 62
    7
 10
87.821066540610957
 20
250.44974662545908
 11
83.578425853490046
 21
246.20710593833687
  0
LINE
  8
_0-d_WHITE_CONTINUOUS
  6
CONTINUOUS
 62
    7
 10
88.528173321796345
 20
241.2573584700331
 11
83.578425853490046
 21
246.20710593833687
  0
ARC
  8
_0-d_WHITE_CONTINUOUS
  6
CONTINUOUS
 62
    7
 10
86.406852978237652
 20
251.86396018783168
 40
1.2499999999995091
 50
314.99999999999989
 51
135.00000000000202
  0
ARC
  8
_0-d_WHITE_CONTINUOUS
  6
CONTINUOUS
 62
    7
 10
87.113959759423267
 20
239.84314490765931
 40
1.300000000000155
 50
240.94236860272969
 51
29.057631397739936
  0
ARC
  8
_0-d_WHITE_CONTINUOUS
  6
CONTINUOUS
 62
    7
 10
86.406852978237652
 20
251.86396018783168
 40
1.9999999999995131
 50
315.00000000000921
 51
135.00000000000199
  0
ARC
  8
_0-d_WHITE_CONTINUOUS
  6
CONTINUOUS
 62
    7
 10
87.113959759423267
 20
239.84314490765931
 40
2.0000000000001541
 50
225.00000000000881
 51
45.00000000000977
  0
LINE
  8
_0-d_WHITE_CONTINUOUS
  6
CONTINUOUS
 62
    7
 10
35.249998728744856
 20
291.49999915715364
 11
31.691886346021249
 21
295.05811153987588
  0
LINE
  8
_0-d_WHITE_CONTINUOUS
  6
CONTINUOUS
 62
    7
 10
18.808111111468122
 20
295.05811153987543
 11
31.691886346020794
 21
295.05811153987543
  0
LINE
  8
_0-d_WHITE_CONTINUOUS
  6
CONTINUOUS
 62
    7
 10
18.808111111467326
 20
281.77905534851425
 11
31.691886346020226
 21
281.77905534851425
  0
ARC
  8
_0-d_WHITE_CONTINUOUS
  6
CONTINUOUS
 62
    7
 10
27.276178489543042
 20
288.41858344419575
 40
7.9738202392011122
 50
303.62642913596119
 51
56.373570864038747
  0
LINE
  8
_0-d_WHITE_CONTINUOUS
  6
CONTINUOUS
 62
    7
 10
15.24999872874497
 20
291.49999915715432
 11
18.808111111468236
 21
295.05811153987543
  0
ARC
  8
_0-d_WHITE_CONTINUOUS
  6
CONTINUOUS
 62
    7
 10
23.223818967945391
 20
288.41858344419506
 40
7.9738202392010358
 50
123.6264291359695
 51
236.37357086403037
  0
LINE
  8
_0-d_WHITE_CONTINUOUS
  6
CONTINUOUS
 62
    7
 10
40.249998728744856
 20
269.99999915715262
 11
40.249998728744458
 21
266.99999915715262
  0
LINE
  8
_0-d_WHITE_CONTINUOUS
  6
CONTINUOUS
 62
    7
 10
36.689528552881427
 20
247.49999915715259
 11
35.249998728744742
 21
247.49999915715259
  0
LINE
  8
_0-d_WHITE_CONTINUOUS
  6
CONTINUOUS
 62
    7
 10
35.249998728744742
 20
245.49999915715401
 11
31.691886346021249
 21
241.94188677442978
  0
ARC
  8
_0-d_WHITE_CONTINUOUS
  6
CONTINUOUS
 62
    7
 10
27.276178489543241
 20
248.58141487011088
 40
7.9738202392008164
 50
303.62642913596272
 51
56.373570864038733
  0
LINE
  8
_0-d_WHITE_CONTINUOUS
  6
CONTINUOUS
 62
    7
 10
18.808111111466872
 20
241.94188677442978
 11
31.691886346021249
 21
241.94188677442978
  0
LINE
  8
_0-d_WHITE_CONTINUOUS
  6
CONTINUOUS
 62
    7
 10
18.808111111467326
 20
255.22094296579169
 11
31.691886346020226
 21
255.22094296579169
  0
LINE
  8
_0-d_WHITE_CONTINUOUS
  6
CONTINUOUS
 62
    7
 10
35.249998728743378
 20
268.49999915715262
 11
35.249998728744742
 21
245.49999915715401
  0
LINE
  8
_0-d_WHITE_CONTINUOUS
  6
CONTINUOUS
 62
    7
 10
18.808111111466189
 20
241.94188677442978
 11
15.249998728744742
 21
245.49999915715196
  0
ARC
  8
_0-d_WHITE_CONTINUOUS
  6
CONTINUOUS
 62
    7
 10
23.185290387098178
 20
248.58141487010991
 40
7.9525487577479552
 50
123.3952911872392
 51
236.60470881276143
  0
LINE
  8
_0-d_WHITE_CONTINUOUS
  6
CONTINUOUS
 62
    7
 10
15.24999872874497
 20
291.49999915715432
 11
15.249998728744742
 21
245.49999915715196
  0
LINE
  8
_0-d_WHITE_CONTINUOUS
  6
CONTINUOUS
 62
    7
 10
35.249998728744856
 20
291.49999915715364
 11
35.24999872874622
 21
268.49999915715262
  0
ARC
  8
_0-d_WHITE_CONTINUOUS
  6
CONTINUOUS
 62
    7
 10
8.6918863460297757
 20
268.49999915715296
 40
26.558112382714398
 50
329.99999999998772
 51
30.000000000011873
  0
ARC
  8
_0-d_WHITE_CONTINUOUS
  6
CONTINUOUS
 62
    7
 10
41.808111111467355
 20
268.49999915715296
 40
26.558112382722801
 50
149.9999999999994
 51
210.0000000000004
  0
LINE
  8
_0-d_WHITE_CONTINUOUS
  6
CONTINUOUS
 62
    7
 10
126.24999872874454
 20
289.49999915715262
 11
35.249998728744856
 21
289.49999915715262
  0
LINE
  8
_0-d_WHITE_CONTINUOUS
  6
CONTINUOUS
 62
    7
 10
49.249998728744572
 20
269.99999915715262
 11
40.249998728744856
 21
269.99999915715262
  0
LINE
  8
_0-d_WHITE_CONTINUOUS
  6
CONTINUOUS
 62
    7
 10
49.249998728744572
 20
266.99999915715262
 11
40.249998728744458
 21
266.99999915715262
  0
ARC
  8
_0-d_WHITE_CONTINUOUS
  6
CONTINUOUS
 62
    7
 10
40.535012739956159
 20
209.4999991571527
 40
80
 50
56.877059792254947
 51
90
  0
ARC
  8
_0-d_WHITE_CONTINUOUS
  6
CONTINUOUS
 62
    7
 10
36.689528552881427
 20
241.49999915715486
 40
6
 50
1.4884079153174883
 51
90.000000000000014
  0
LINE
  8
_0-d_WHITE_CONTINUOUS
  6
CONTINUOUS
 62
    7
 10
79.249998728745055
 20
183.4999991571527
 11
80.249998728745055
 21
184.4999991571527
  0
LINE
  8
_0-d_WHITE_CONTINUOUS
  6
CONTINUOUS
 62
    7
 10
80.249998728744544
 20
188.66573109366018
 11
80.249998728744856
 21
184.4999991571527
  0
ARC
  8
_0-d_WHITE_CONTINUOUS
  6
CONTINUOUS
 62
    7
 10
90.249998728744657
 20
188.66573109366018
 40
10
 50
111.21461837567379
 51
180
  0
LINE
  8
_0-d_WHITE_CONTINUOUS
  6
CONTINUOUS
 62
    7
 10
50.249998728744856
 20
184.49999915715259
 11
51.249998728744856
 21
183.4999991571525
  0
LINE
  8
_0-d_WHITE_CONTINUOUS
  6
CONTINUOUS
 62
    7
 10
50.249998728744856
 20
201.61990691051429
 11
50.249998728744856
 21
184.49999915715259
  0
LINE
  8
_0-d_WHITE_CONTINUOUS
  6
CONTINUOUS
 62
    7
 10
79.249998728744856
 20
183.4999991571527
 11
51.249998728744856
 21
183.4999991571525
  0
LINE
  8
_0-d_WHITE_CONTINUOUS
  6
CONTINUOUS
 62
    7
 10
50.249998728744856
 20
184.49999915715259
 11
80.249998728745055
 21
184.49999915715259
  0
ARC
  8
_0-d_WHITE_CONTINUOUS
  6
CONTINUOUS
 62
    7
 10
68.900115342640163
 20
243.66738997227716
 40
49
 50
291.21461837567381
 51
356.75758881564514
  0
ARC
  8
_0-d_WHITE_CONTINUOUS
  6
CONTINUOUS
 62
    7
 10
30.249998728744856
 20
201.61990691051429
 40
20
 50
0.0000000000195413
 51
20.160780882681099
  0
ARC
  8
_0-d_WHITE_CONTINUOUS
  6
CONTINUOUS
 62
    7
 10
119.69188634602176
 20
268.49999915715296
 40
26.558112382722801
 50
329.99999999999937
 51
30.000000000000512
  0
ARC
  8
_0-d_WHITE_CONTINUOUS
  6
CONTINUOUS
 62
    7
 10
152.80811111145945
 20
268.49999915715296
 40
26.558112382714398
 50
149.99999999998801
 51
210.00000000001216
  0
LINE
  8
_0-d_WHITE_CONTINUOUS
  6
CONTINUOUS
 62
    7
 10
126.24999872874434
 20
291.49999915715364
 11
126.24999872874295
 21
268.49999915715262
  0
LINE
  8
_0-d_WHITE_CONTINUOUS
  6
CONTINUOUS
 62
    7
 10
146.24999872874426
 20
291.49999915715432
 11
146.24999872874446
 21
245.49999915715196
  0
ARC
  8
_0-d_WHITE_CONTINUOUS
  6
CONTINUOUS
 62
    7
 10
138.31470707039105
 20
248.58141487010991
 40
7.9525487577479552
 50
303.39529118723851
 51
56.604708812760741
  0
LINE
  8
_0-d_WHITE_CONTINUOUS
  6
CONTINUOUS
 62
    7
 10
142.69188634602295
 20
241.94188677442978
 11
146.24999872874446
 21
245.49999915715196
  0
LINE
  8
_0-d_WHITE_CONTINUOUS
  6
CONTINUOUS
 62
    7
 10
126.24999872874585
 20
268.49999915715262
 11
126.24999872874434
 21
245.49999915715401
  0
LINE
  8
_0-d_WHITE_CONTINUOUS
  6
CONTINUOUS
 62
    7
 10
142.69188634602185
 20
255.22094296579169
 11
129.80811111146886
 21
255.22094296579169
  0
LINE
  8
_0-d_WHITE_CONTINUOUS
  6
CONTINUOUS
 62
    7
 10
142.69188634602236
 20
241.94188677442978
 11
129.80811111146795
 21
241.94188677442978
  0
ARC
  8
_0-d_WHITE_CONTINUOUS
  6
CONTINUOUS
 62
    7
 10
134.22381896794585
 20
248.58141487011088
 40
7.9738202392008164
 50
123.6264291359612
 51
236.37357086403739
  0
LINE
  8
_0-d_WHITE_CONTINUOUS
  6
CONTINUOUS
 62
    7
 10
126.24999872874434
 20
245.49999915715401
 11
129.80811111146795
 21
241.94188677442978
  0
ARC
  8
_0-d_WHITE_CONTINUOUS
  6
CONTINUOUS
 62
    7
 10
138.27617848954375
 20
288.41858344419506
 40
7.9738202392010358
 50
303.62642913596954
 51
56.373570864030427
  0
LINE
  8
_0-d_WHITE_CONTINUOUS
  6
CONTINUOUS
 62
    7
 10
146.24999872874426
 20
291.49999915715432
 11
142.69188634602096
 21
295.05811153987543
  0
ARC
  8
_0-d_WHITE_CONTINUOUS
  6
CONTINUOUS
 62
    7
 10
134.22381896794616
 20
288.41858344419575
 40
7.9738202392011122
 50
123.6264291359612
 51
236.37357086403867
  0
LINE
  8
_0-d_WHITE_CONTINUOUS
  6
CONTINUOUS
 62
    7
 10
142.69188634602185
 20
281.77905534851425
 11
129.80811111146886
 21
281.77905534851425
  0
LINE
  8
_0-d_WHITE_CONTINUOUS
  6
CONTINUOUS
 62
    7
 10
142.69188634602105
 20
295.05811153987543
 11
129.80811111146835
 21
295.05811153987543
  0
LINE
  8
_0-d_WHITE_CONTINUOUS
  6
CONTINUOUS
 62
    7
 10
126.24999872874434
 20
291.49999915715364
 11
129.80811111146795
 21
295.05811153987588
  0
LINE
  8
_0-1_ITTEN
  6
CENTER
 62
    1
 10
120.25159407857026
 20
268.49999915715296
 11
151.25159407857035
 21
268.49999915715296
  0
LINE
  8
_0-1_ITTEN
  6
CENTER
 62
    1
 10
41.248403378919051
 20
268.49999915715296
 11
10.248403378919136
 21
268.49999915715296
  0
LINE
  8
_0-6_JISSEN
  6
CONTINUOUS
 62
    7
 10
52.249998728744856
 20
175.4999991571529
 11
52.249998728744856
 21
143.4999991571525
  0
LINE
  8
_0-6_JISSEN
  6
CONTINUOUS
 62
    7
 10
78.249998728744856
 20
175.4999991571529
 11
78.249998728744856
 21
143.4999991571525
  0
LINE
  8
_0-5_SAISEN
  6
CONTINUOUS
 62
    7
 10
55.87699585520906
 20
183.4999991571529
 11
55.720738046688552
 21
178.49999915715298
  0
LINE
  8
_0-6_JISSEN
  6
CONTINUOUS
 62
    7
 10
54.714995855209054
 20
183.4999991571529
 11
54.496113503937465
 21
176.49611393234619
  0
LINE
  8
_0-5_SAISEN
  6
CONTINUOUS
 62
    7
 10
55.720738046688552
 20
178.49999915715298
 11
54.496113503937465
 21
176.49611393234619
  0
LINE
  8
_0-6_JISSEN
  6
CONTINUOUS
 62
    7
 10
54.496113503937465
 20
176.49611393234619
 11
53.499998728744345
 21
175.4999991571529
  0
LINE
  8
_0-6_JISSEN
  6
CONTINUOUS
 62
    7
 10
54.496113503936755
 20
176.4961139323444
 11
76.003883953552162
 21
176.49611393234619
  0
LINE
  8
_0-6_JISSEN
  6
CONTINUOUS
 62
    7
 10
76.003883953552162
 20
176.49611393234619
 11
76.999998728745254
 21
175.4999991571529
  0
LINE
  8
_0-6_JISSEN
  6
CONTINUOUS
 62
    7
 10
75.941259410801052
 20
178.49999915715298
 11
54.558738046687836
 21
178.49999915715298
  0
LINE
  8
_0-5_SAISEN
  6
CONTINUOUS
 62
    7
 10
74.779259410801046
 20
178.49999915715298
 11
76.003883953552162
 21
176.49611393234619
  0
LINE
  8
_0-5_SAISEN
  6
CONTINUOUS
 62
    7
 10
74.623001602280567
 20
183.4999991571529
 11
74.779259410801046
 21
178.49999915715298
  0
LINE
  8
_0-6_JISSEN
  6
CONTINUOUS
 62
    7
 10
75.785001602280545
 20
183.4999991571529
 11
76.003883953552162
 21
176.49611393234619
  0
LINE
  8
_0-5_SAISEN
  6
CONTINUOUS
 62
    4
 10
154.84758920022057
 20
131.4999991571529
 11
154.90216501480427
 21
131.19701810093238
  0
LINE
  8
_0-5_SAISEN
  6
CONTINUOUS
 62
    4
 10
154.90216501480427
 20
131.19701810093238
 11
155.13449283722207
 21
130.15805705144288
  0
LINE
  8
_0-5_SAISEN
  6
CONTINUOUS
 62
    4
 10
155.13449283722207
 20
130.15805705144288
 11
155.37524342057347
 21
129.08298466270799
  0
LINE
  8
_0-5_SAISEN
  6
CONTINUOUS
 62
    4
 10
155.37524342057347
 20
129.08298466270799
 11
155.57809157972375
 21
127.98880482827968
  0
LINE
  8
_0-5_SAISEN
  6
CONTINUOUS
 62
    4
 10
155.57809157972375
 20
127.98880482827968
 11
155.69671212953835
 21
126.8925214417103
  0
LINE
  8
_0-5_SAISEN
  6
CONTINUOUS
 62
    4
 10
155.69671212953835
 20
126.8925214417103
 11
155.68477988488246
 21
125.81113839655188
  0
LINE
  8
_0-5_SAISEN
  6
CONTINUOUS
 62
    4
 10
155.68477988488246
 20
125.81113839655188
 11
155.49596966062137
 21
124.7616595863565
  0
LINE
  8
_0-5_SAISEN
  6
CONTINUOUS
 62
    4
 10
155.49596966062137
 20
124.7616595863565
 11
155.08395627162056
 21
123.76108890467628
  0
LINE
  8
_0-5_SAISEN
  6
CONTINUOUS
 62
    4
 10
155.08395627162056
 20
123.76108890467628
 11
154.43084516890926
 21
122.81069258071409
  0
LINE
  8
_0-5_SAISEN
  6
CONTINUOUS
 62
    4
 10
154.43084516890926
 20
122.81069258071409
 11
153.63246434817225
 21
121.84878618627499
  0
LINE
  8
_0-5_SAISEN
  6
CONTINUOUS
 62
    4
 10
153.63246434817225
 20
121.84878618627499
 11
152.81307244125847
 21
120.797947628815
  0
LINE
  8
_0-5_SAISEN
  6
CONTINUOUS
 62
    4
 10
152.81307244125847
 20
120.797947628815
 11
152.09692808001685
 21
119.58075481578959
  0
LINE
  8
_0-5_SAISEN
  6
CONTINUOUS
 62
    4
 10
152.09692808001685
 20
119.58075481578959
 11
151.60828989629627
 21
118.11978565465509
  0
LINE
  8
_0-5_SAISEN
  6
CONTINUOUS
 62
    4
 10
151.60828989629627
 20
118.11978565465509
 11
151.47141652194526
 21
116.33761805286679
  0
LINE
  8
_0-5_SAISEN
  6
CONTINUOUS
 62
    4
 10
151.47141652194526
 20
116.33761805286679
 11
151.81056658881295
 21
114.1568299178808
  0
LINE
  8
_0-5_SAISEN
  6
CONTINUOUS
 62
    4
 10
151.81056658881295
 20
114.1568299178808
 11
152.74999872874827
 21
111.4999991571529
  0
LINE
  8
_0-5_SAISEN
  6
CONTINUOUS
 62
    4
 10
-24.347591742731197
 20
131.49999915715199
 11
-24.402167557314669
 21
131.19701810093238
  0
LINE
  8
_0-5_SAISEN
  6
CONTINUOUS
 62
    4
 10
-24.402167557314669
 20
131.19701810093238
 11
-24.634495379732471
 21
130.15805705144288
  0
LINE
  8
_0-5_SAISEN
  6
CONTINUOUS
 62
    4
 10
-24.634495379732471
 20
130.15805705144288
 11
-24.875245963083898
 21
129.08298466270799
  0
LINE
  8
_0-5_SAISEN
  6
CONTINUOUS
 62
    4
 10
-24.875245963083898
 20
129.08298466270799
 11
-25.078094122234234
 21
127.98880482827968
  0
LINE
  8
_0-5_SAISEN
  6
CONTINUOUS
 62
    4
 10
-25.078094122234234
 20
127.98880482827968
 11
-25.196714672048756
 21
126.8925214417103
  0
LINE
  8
_0-5_SAISEN
  6
CONTINUOUS
 62
    4
 10
-25.196714672048756
 20
126.8925214417103
 11
-25.184782427392861
 21
125.81113839655188
  0
LINE
  8
_0-5_SAISEN
  6
CONTINUOUS
 62
    4
 10
-25.184782427392861
 20
125.81113839655188
 11
-24.995972203131828
 21
124.7616595863565
  0
LINE
  8
_0-5_SAISEN
  6
CONTINUOUS
 62
    4
 10
-24.995972203131828
 20
124.7616595863565
 11
-24.583958814131051
 21
123.76108890467628
  0
LINE
  8
_0-5_SAISEN
  6
CONTINUOUS
 62
    4
 10
-24.583958814131051
 20
123.76108890467628
 11
-23.930847711419688
 21
122.81069258071409
  0
LINE
  8
_0-5_SAISEN
  6
CONTINUOUS
 62
    4
 10
-23.930847711419688
 20
122.81069258071409
 11
-23.132466890682736
 21
121.84878618627499
  0
LINE
  8
_0-5_SAISEN
  6
CONTINUOUS
 62
    4
 10
-23.132466890682736
 20
121.84878618627499
 11
-22.313074983768956
 21
120.797947628815
  0
LINE
  8
_0-5_SAISEN
  6
CONTINUOUS
 62
    4
 10
-22.313074983768956
 20
120.797947628815
 11
-21.596930622527339
 21
119.58075481578959
  0
LINE
  8
_0-5_SAISEN
  6
CONTINUOUS
 62
    4
 10
-21.596930622527339
 20
119.58075481578959
 11
-21.108292438806643
 21
118.11978565465509
  0
LINE
  8
_0-5_SAISEN
  6
CONTINUOUS
 62
    4
 10
-21.108292438806643
 20
118.11978565465509
 11
-20.971419064455745
 21
116.33761805286679
  0
LINE
  8
_0-5_SAISEN
  6
CONTINUOUS
 62
    4
 10
-20.971419064455745
 20
116.33761805286679
 11
-21.310569131323405
 21
114.1568299178808
  0
LINE
  8
_0-5_SAISEN
  6
CONTINUOUS
 62
    4
 10
-21.310569131323405
 20
114.1568299178808
 11
-22.250001271258753
 21
111.4999991571529
  0
LINE
  8
_0-6_JISSEN
  6
CONTINUOUS
 62
    7
 10
-24.347591742731311
 20
131.49999915715128
 11
46.749998728746561
 21
131.49999915715298
  0
LINE
  8
_0-6_JISSEN
  6
CONTINUOUS
 62
    7
 10
83.749998728746448
 20
131.4999991571529
 11
154.84758920022057
 21
131.49999915715279
  0
LINE
  8
_0-6_JISSEN
  6
CONTINUOUS
 62
    7
 10
90.249998728746561
 20
131.4999991571529
 11
90.249998728746561
 21
111.4999991571529
  0
LINE
  8
_0-1_ITTEN
  6
CENTER
 62
    1
 10
65.249998728744856
 20
294.49999915715262
 11
65.249998728744856
 21
77.249679310167892
  0
LINE
  8
_0-6_JISSEN
  6
CONTINUOUS
 62
    7
 10
84.749998728746448
 20
111.4999991571529
 11
152.74999872874827
 21
111.49999915715279
  0
LINE
  8
_0-6_JISSEN
  6
CONTINUOUS
 62
    7
 10
-22.250001271259293
 20
111.49999915715128
 11
45.749998728746561
 21
111.4999991571529
  0
LINE
  8
_0-6_JISSEN
  6
CONTINUOUS
 62
    7
 10
40.249998728742952
 20
131.49999915715279
 11
40.249998728742952
 21
111.49999915715279
  0
LINE
  8
_0-6_JISSEN
  6
CONTINUOUS
 62
    7
 10
288.24999872874298
 20
131.49999915715279
 11
288.24999872874298
 21
111.49999915715279
  0
LINE
  8
_0-6_JISSEN
  6
CONTINUOUS
 62
    7
 10
225.74999872874065
 20
111.49999915715128
 11
293.74999872874656
 21
111.4999991571529
  0
LINE
  8
_0-6_JISSEN
  6
CONTINUOUS
 62
    7
 10
331.74999872874264
 20
111.4999991571529
 11
400.74999872874844
 21
111.49999915715279
  0
LINE
  8
_0-1_ITTEN
  6
CENTER
 62
    1
 10
313.24999872874486
 20
254.49999915715298
 11
313.24999872874486
 21
77.24967931016829
  0
LINE
  8
_0-6_JISSEN
  6
CONTINUOUS
 62
    7
 10
338.24999872874656
 20
131.4999991571529
 11
338.24999872874656
 21
111.4999991571529
  0
LINE
  8
_0-6_JISSEN
  6
CONTINUOUS
 62
    7
 10
331.74999872874656
 20
131.4999991571529
 11
402.84758920022057
 21
131.49999915715279
  0
LINE
  8
_0-6_JISSEN
  6
CONTINUOUS
 62
    7
 10
223.65240825726875
 20
131.49999915715128
 11
294.74999872874656
 21
131.49999915715298
  0
LINE
  8
_0-5_SAISEN
  6
CONTINUOUS
 62
    4
 10
223.65240825726875
 20
131.49999915715199
 11
223.59783244268533
 21
131.19701810093238
  0
LINE
  8
_0-5_SAISEN
  6
CONTINUOUS
 62
    4
 10
223.59783244268533
 20
131.19701810093238
 11
223.36550462026764
 21
130.15805705144288
  0
LINE
  8
_0-5_SAISEN
  6
CONTINUOUS
 62
    4
 10
223.36550462026764
 20
130.15805705144288
 11
223.12475403691616
 21
129.08298466270799
  0
LINE
  8
_0-5_SAISEN
  6
CONTINUOUS
 62
    4
 10
223.12475403691616
 20
129.08298466270799
 11
222.92190587776588
 21
127.98880482827968
  0
LINE
  8
_0-5_SAISEN
  6
CONTINUOUS
 62
    4
 10
222.92190587776588
 20
127.98880482827968
 11
222.80328532795124
 21
126.8925214417103
  0
LINE
  8
_0-5_SAISEN
  6
CONTINUOUS
 62
    4
 10
222.80328532795124
 20
126.8925214417103
 11
222.81521757260714
 21
125.81113839655188
  0
LINE
  8
_0-5_SAISEN
  6
CONTINUOUS
 62
    4
 10
222.81521757260714
 20
125.81113839655188
 11
223.00402779686817
 21
124.7616595863565
  0
LINE
  8
_0-5_SAISEN
  6
CONTINUOUS
 62
    4
 10
223.00402779686817
 20
124.7616595863565
 11
223.41604118586883
 21
123.76108890467628
  0
LINE
  8
_0-5_SAISEN
  6
CONTINUOUS
 62
    4
 10
223.41604118586883
 20
123.76108890467628
 11
224.06915228858026
 21
122.81069258071409
  0
LINE
  8
_0-5_SAISEN
  6
CONTINUOUS
 62
    4
 10
224.06915228858026
 20
122.81069258071409
 11
224.86753310931738
 21
121.84878618627499
  0
LINE
  8
_0-5_SAISEN
  6
CONTINUOUS
 62
    4
 10
224.86753310931738
 20
121.84878618627499
 11
225.68692501623116
 21
120.797947628815
  0
LINE
  8
_0-5_SAISEN
  6
CONTINUOUS
 62
    4
 10
225.68692501623116
 20
120.797947628815
 11
226.40306937747255
 21
119.58075481578959
  0
LINE
  8
_0-5_SAISEN
  6
CONTINUOUS
 62
    4
 10
226.40306937747255
 20
119.58075481578959
 11
226.89170756119336
 21
118.11978565465509
  0
LINE
  8
_0-5_SAISEN
  6
CONTINUOUS
 62
    4
 10
226.89170756119336
 20
118.11978565465509
 11
227.02858093554414
 21
116.33761805286679
  0
LINE
  8
_0-5_SAISEN
  6
CONTINUOUS
 62
    4
 10
227.02858093554414
 20
116.33761805286679
 11
226.68943086867654
 21
114.1568299178808
  0
LINE
  8
_0-5_SAISEN
  6
CONTINUOUS
 62
    4
 10
226.68943086867654
 20
114.1568299178808
 11
225.74999872874133
 21
111.4999991571529
  0
LINE
  8
_0-5_SAISEN
  6
CONTINUOUS
 62
    4
 10
402.84758920022057
 20
131.4999991571529
 11
402.90216501480415
 21
131.19701810093238
  0
LINE
  8
_0-5_SAISEN
  6
CONTINUOUS
 62
    4
 10
402.90216501480415
 20
131.19701810093238
 11
403.13449283722207
 21
130.15805705144288
  0
LINE
  8
_0-5_SAISEN
  6
CONTINUOUS
 62
    4
 10
403.13449283722207
 20
130.15805705144288
 11
403.37524342057355
 21
129.08298466270799
  0
LINE
  8
_0-5_SAISEN
  6
CONTINUOUS
 62
    4
 10
403.37524342057355
 20
129.08298466270799
 11
403.57809157972395
 21
127.98880482827968
  0
LINE
  8
_0-5_SAISEN
  6
CONTINUOUS
 62
    4
 10
403.57809157972395
 20
127.98880482827968
 11
403.69671212953847
 21
126.8925214417103
  0
LINE
  8
_0-5_SAISEN
  6
CONTINUOUS
 62
    4
 10
403.69671212953847
 20
126.8925214417103
 11
403.68477988488246
 21
125.81113839655188
  0
LINE
  8
_0-5_SAISEN
  6
CONTINUOUS
 62
    4
 10
403.68477988488246
 20
125.81113839655188
 11
403.49596966062137
 21
124.7616595863565
  0
LINE
  8
_0-5_SAISEN
  6
CONTINUOUS
 62
    4
 10
403.49596966062137
 20
124.7616595863565
 11
403.08395627162037
 21
123.76108890467628
  0
LINE
  8
_0-5_SAISEN
  6
CONTINUOUS
 62
    4
 10
403.08395627162037
 20
123.76108890467628
 11
402.43084516890917
 21
122.81069258071409
  0
LINE
  8
_0-5_SAISEN
  6
CONTINUOUS
 62
    4
 10
402.43084516890917
 20
122.81069258071409
 11
401.63246434817245
 21
121.84878618627499
  0
LINE
  8
_0-5_SAISEN
  6
CONTINUOUS
 62
    4
 10
401.63246434817245
 20
121.84878618627499
 11
400.81307244125867
 21
120.797947628815
  0
LINE
  8
_0-5_SAISEN
  6
CONTINUOUS
 62
    4
 10
400.81307244125867
 20
120.797947628815
 11
400.09692808001665
 21
119.58075481578959
  0
LINE
  8
_0-5_SAISEN
  6
CONTINUOUS
 62
    4
 10
400.09692808001665
 20
119.58075481578959
 11
399.60828989629613
 21
118.11978565465509
  0
LINE
  8
_0-5_SAISEN
  6
CONTINUOUS
 62
    4
 10
399.60828989629613
 20
118.11978565465509
 11
399.47141652194495
 21
116.33761805286679
  0
LINE
  8
_0-5_SAISEN
  6
CONTINUOUS
 62
    4
 10
399.47141652194495
 20
116.33761805286679
 11
399.81056658881295
 21
114.1568299178808
  0
LINE
  8
_0-5_SAISEN
  6
CONTINUOUS
 62
    4
 10
399.81056658881295
 20
114.1568299178808
 11
400.74999872874844
 21
111.4999991571529
  0
LINE
  8
_0-6_JISSEN
  6
CONTINUOUS
 62
    7
 10
78.249998728744856
 20
143.4999991571525
 11
52.249998728744856
 21
143.4999991571525
  0
LINE
  8
_0-6_JISSEN
  6
CONTINUOUS
 62
    7
 10
78.249998728744856
 20
175.4999991571529
 11
52.249998728744856
 21
175.4999991571529
  0
ENDSEC
  0
EOF
